From: Joe 201 ([email protected])
Group: Green Day
Album: Insomniac
Released: 1995 reprise records
Track: 13
Title: tight wad hill
: - let ring
verse
|-------------------------------------------------------------|
|-------------------------------------------------------------|
|-------------------------------------------------------------|
|-6-6-6-6-6-6-6-6-6-6-6-6-4-4-4-4-4-4-4-6-6-6-6-6-4-4-4-6-6-6-|
|-6-6-6-6-6-6-6-6-6-6-6-6-4-4-4-4-4-4-4-6-6-6-6-6-4-4-4-6-6-6-|
|-4-4-4-4-4-4-4-4-4-4-4-4-2-2-2-2-2-2-2-4-4-4-4-4-2-2-2-4-4-4-|
chorus
|-------------------------------------------------------------|
|-------------------------------------------------------------|
|-4-4-4-4-4-4-4-4-4-4-4-4-------------------------------------|
|-4-4-4-4-4-4-4-4-4-4-4-4-4-4-4-4-4-4-4-6-6-6-6-6-4-4-4-6-6-6-|
|-2-2-2-2-2-2-2-2-2-2-2-2-4-4-4-4-4-4-4-6-6-6-6-6-4-4-4-6-6-6-|
|-------------------------2-2-2-2-2-2-2-4-4-4-4-4-2-2-2-4-4-4-|
|-----------------------------------------------------------------
|-----------------------------------------------------------------
|-4-4-4-4-4-4-4-4-4---------------4-4-4-4-4-4-4-4-4---------------
|-4-4-4-4-4-4-4-4-4-4-4-4-4-4-4-4-4-4-4-4-4-4-4-4-4-4-4-4-4-4-4-4-
|-2-2-2-2-2-2-2-2-2-4-4-4-4-4-4-4-2-2-2-2-2-2-2-2-2-4-4-4-4-4-4-4-
|-------------------2-2-2-2-2-2-2-------------------2-2-2-2-2-2-2-
-----------------------------------|
-----------------------------------|
-4:--------------------------------|
-4:-----4:-----6-6-6-6-6-6-6-6-4-4-|
-2:-----4:-----6-6-6-6-6-6-6-6-4-4-|
--------2:-----4-4-4-4-4-4-4-4-2-2-|




Ваше мнение



Капча