Green Day
The One I Want

Intro:
G-----------------|------------------|
D--3----2----0----|------------------| Repeat
A----------------3|------------------|
E-----------------|-3-3-3-3-3-3-3-3-3|

verse:
G----------------------------------|
D----------------------------------|
A--3-3-3-3----------1-1-1-1--------|
E-----------3-3-3-3---------1-1-1-1|

+play fast+
G------------------------------------------------------------|
D--------------------------3-2-0-----------------------------|
A--5-5-5-5---------3-3-3-3-------3---5-5-5-5----------3-3-3-3|
E----------6-6-6-6----------------------------6-6-6-6--------|

Chorus:
G------------|
D-hold-------|
A--3---------|
E-----------3|

back to verse
chorus

guitar solo
G--------------------------------|
D--------------------------------| repeat
A--3-3-3-3--------1-1-1-1--------|
E---------3-3-3-3---------1-1-1-1|

G----------------------------------------------------------------------|
D-----------------------------3-2-0------------------------------------|
A--5-5-5-5---------3-3-3-3-3--------3--5-5-5-5----------3-3-3-3-3-3-3-3|
E----------6-6-6-6------------------------------6-6-6-6----------------|
Then repeat
Then chorus

Das it.
Any queations E-Mail me at [email protected]




Ваше мнение



Капча