Song: The Judge's Daughter
Artist: Green Day
Album: 39/Smooth

I made a mistake when I first posted this tab, I put the fill and the G(3) backwards for the
verse and solo. I finally noticed it when I was going through checking my old tabs.

Verse
G-----------------------------------
D-----------------------------------
A------------------3-3-3-3----------
E--3-3-3-3-1-1-1-1---------3-3-3-3--

G-------------------------------------------
D--------------------------2h3h4h5----------
A------------------3-3-3-3------------------
E--3-3-3-3-1-1-1-1-----------------3-3-3-3--

Chorus X2 X2
G---------------------------------------------|-----------------------------|-------------------
D---------------------------------------------|-----------------------------|-------------------
A--3-3-3-3-3-4h5-5-5-5-5h4h3------------------|--3-3-3-3-3-4h5-5-5-5-5h4h3--|-------------------
E----------------------------3-3-3-3-3-3-1-3--|-----------------------------|--3-3-3-3-3-3-1-3--

Bridge/Outro
G-------------
D-------------
A-------------
E--3-3-3-1-3--

Solo (Play this during the guitar solo)
G-------------------------------------------
D--------------------------2h3h4h5----------
A------------------3-3-3-3------------------
E--3-3-3-3-1-1-1-1-----------------3-3-3-3--

G-------------------------------------------
D--------------------------5p4p3p2----------
A------------------3-3-3-3------------------
E--3-3-3-3-1-1-1-1-----------------3-3-3-3--

Verse X2
Chorus X1
Verse X4




Ваше мнение



Капча