Verse 1:
|----------------------------------------------|
|----------------------------------------------|
|------------------------5-5-5-5-5-------------|
|-5-5-5-5-5--3-3-3-3-3---5-5-5-5-5--5-5-5-5-5--| x4
|-5-5-5-5-5--3-3-3-3-3---3-3-3-3-3--5-5-5-5-5--|
|-3-3-3-3-3--1-1-1-1-1--------------3-3-3-3-3--|
Chorus 1:
|-------------------------------|-------------------------------|
|-------------------------------|-------------------------------|
|-5-5-5-5--7-7-7-7--------------|-5-5-5-5--7-7-7-7--------------|
|-5-5-5-5--7-7-7-7--5-5-5-5-3-5-|-5-5-5-5--7-7-7-7--5-5-5-5-3-5-|
|-3-3-3-3--5-5-5-5--5-5-5-5-3-5-|-3-3-3-3--5-5-5-5--5-5-5-5-3-5-|
|-------------------3-3-3-3-1-3-|-------------------3-3-3-3-1-3-|
|--------------------------------------------------------------|
|--------------------------------------------------------------|
|-5-5-5-5--7-7-7-7--5-5-5-5--7-7-7-7---------------------------|
|-5-5-5-5--7-7-7-7--5-5-5-5--7-7-7-7--5-5-5-5-3-5--5-5-5-5-3-5-|
|-3-3-3-3--5-5-5-5--3-3-3-3--5-5-5-5--5-5-5-5-3-5--5-5-5-5-3-5-|
|-------------------------------------3-3-3-3-1-3--3-3-3-3-1-3-|
Post-chorus (instrumental):
|----------------------------------------------|
|----------------------------------------------|
|------------------------5-5-5-5-5-------------|
|-5-5-5-5-5--3-3-3-3-3---5-5-5-5-5--5-5-5-5-5--| x2
|-5-5-5-5-5--3-3-3-3-3---3-3-3-3-3--5-5-5-5-5--|
|-3-3-3-3-3--1-1-1-1-1--------------3-3-3-3-3--|
Verse 2:
|----------------------------------------------|
|----------------------------------------------|
|------------------------5-5-5-5-5-------------|
|-5-5-5-5-5--3-3-3-3-3---5-5-5-5-5--5-5-5-5-5--| x4
|-5-5-5-5-5--3-3-3-3-3---3-3-3-3-3--5-5-5-5-5--|
|-3-3-3-3-3--1-1-1-1-1--------------3-3-3-3-3--|
Chorus 2:
|-------------------------------|-------------------------------|
|-------------------------------|-------------------------------|
|-5-5-5-5--7-7-7-7--------------|-5-5-5-5--7-7-7-7--------------|
|-5-5-5-5--7-7-7-7--5-5-5-5-3-5-|-5-5-5-5--7-7-7-7--5-5-5-5-3-5-|
|-3-3-3-3--5-5-5-5--5-5-5-5-3-5-|-3-3-3-3--5-5-5-5--5-5-5-5-3-5-|
|-------------------3-3-3-3-1-3-|-------------------3-3-3-3-1-3-|
|--------------------------------------------------------------|
|--------------------------------------------------------------|
|-5-5-5-5--7-7-7-7--5-5-5-5--7-7-7-7---------------------------|
|-5-5-5-5--7-7-7-7--5-5-5-5--7-7-7-7--5-5-5-5-3-5--5-5-5-5-3-5-|
|-3-3-3-3--5-5-5-5--3-3-3-3--5-5-5-5--5-5-5-5-3-5--5-5-5-5-3-5-|
|-------------------------------------3-3-3-3-1-3--3-3-3-3-1-3-|
Bridge:
|-----------------------------------------------------------|
|-----------------------------------------------------------|
|-----------------------------------------------------------|
|-5-5-5-5-3-5----5-5-5-5-3-5----5-5-5-5-3-5----5-5-5-5-3-5--|
|-5-5-5-5-3-5----5-5-5-5-3-5----5-5-5-5-3-5----5-5-5-5-3-5--|
|-3-3-3-3-1-3----3-3-3-3-1-3----3-3-3-3-1-3----3-3-3-3-1-3--|
Solo: I'm afraid i don't know but for the solo part play the verse.
Chorus 3:
|-------------------------------|-------------------------------|
|-------------------------------|-------------------------------|
|-5-5-5-5--7-7-7-7--------------|-5-5-5-5--7-7-7-7--------------|
|-5-5-5-5--7-7-7-7--5-5-5-5-3-5-|-5-5-5-5--7-7-7-7--5-5-5-5-3-5-|
|-3-3-3-3--5-5-5-5--5-5-5-5-3-5-|-3-3-3-3--5-5-5-5--5-5-5-5-3-5-|
|-------------------3-3-3-3-1-3-|-------------------3-3-3-3-1-3-|
|--------------------------------------------------------------|
|--------------------------------------------------------------|
|-5-5-5-5--7-7-7-7--5-5-5-5--7-7-7-7---------------------------|
|-5-5-5-5--7-7-7-7--5-5-5-5--7-7-7-7--5-5-5-5-3-5--5-5-5-5-3-5-|
|-3-3-3-3--5-5-5-5--3-3-3-3--5-5-5-5--5-5-5-5-3-5--5-5-5-5-3-5-|
|-------------------------------------3-3-3-3-1-3--3-3-3-3-1-3-|
Outro:
|-----------------------------------------------------------|
|-----------------------------------------------------------|
|-----------------------------------------------------------|
|-5-5-5-5-3-5----5-5-5-5-3-5----5-5-5-5-3-5----5-5-5-5-3-5--|
|-5-5-5-5-3-5----5-5-5-5-3-5----5-5-5-5-3-5----5-5-5-5-3-5--|
|-3-3-3-3-1-3----3-3-3-3-1-3----3-3-3-3-1-3----3-3-3-3-1-3--|
Lyrics:
Princess in a schoolgirl's dream
may i please to you?
I'm having trouble with control
and its all because of you.
Today i kept on falling down
i thought it was the street.
So then i looked down at my shoes
they were on the wrong feet.
I find it hard to be myself
Can you please explain?
I do not think that its my health
and your the one to blame.
Your the one i wish i had
and now my girlfriends getting mad
I cannot call this sane.
I cannot call this sane.
Today as i was walking down
you bumped into me.
You said excuse me and walked away
as i dropped to my knees.
I prayed to the being in the sky
that my parents told me of.
I asked about you but no reply
no clues about your love.
I find it hard to be myself
Can you please explain?
I do not think that its my health
and your the one to blame.
My girlfriend left me on the phone
I'm pathetically left here alone.
I cannot call this sane.
I cannot call this sane.
Can we find a way?
So that you can stay
I think I'm gonna pop
I find it hard to be myself
Can you please explain?
I do not think that its my health
and your the one to blame.
Your the one i wish i had
and now my girlfriends getting mad
I cannot call this sane.
I cannot call this sane.
Can we find a way?
So that you can stay
I think I'm gonna pop
i hope that that's alright! i'm really pissed off about not having the solo but never
mind. any comments or suggestions can go to [email protected]
Thanx!




Ваше мнение



Капча