THE GROUCH
GREEN DAY
Tabbed by: KoRny Freak ([email protected])
verse
|-------------------------------------------------------------
|-------------------------------------------------------------
|-------------------7-7-7-------------7-7-7-------------------
|-7-7-7-2-2-2-7-7-7-7-7-7-7-7-7-2-2-2-7-7-7-2-2-2-7-7-7-2-2-2-
|-7-7-7-2-2-2-7-7-7-5-5-5-7-7-7-2-2-2-5-5-5-2-2-2-7-7-7-2-2-2-
|-5-5-5-0-0-0-5-5-5-------5-5-5-0-0-0-------0-0-0-5-5-5-0-0-0-
---------------------------------------|
---------------------------------------|
-------7-7-7---------------------------|
-7-7-7-7-7-7-7-7-7-2-2-2-7-7-7-7-7-7-7-|
-7-7-7-5-5-5-7-7-7-2-2-2-7-7-7-7-7-7-7-|
-5-5-5-------5-5-5-0-0-0-5-5-5-5-5-5-5-|
chorus
|-----------------------------------------------------------------
|-----------------------------------------------------------------
|-------7-7-7-------------------7-7-7-------9-9-9-9-9-------7-7-7-
|-4-4-4-7-7-7-7-7-7-2-2-2-4-4-4-7-7-7-7-7-7-9-9-9-9-9-4-4-4-7-7-7-
|-4-4-4-5-5-5-7-7-7-2-2-2-4-4-4-5-5-5-7-7-7-7-7-7-7-7-4-4-4-5-5-5-
|-2-2-2-------5-5-5-0-0-0-2-2-2-------5-5-5-----------2-2-2-------
-----------------------------------------------|
-----------------------------------------------|
-------------------7-7-7-------9-9-9-9-9-9-9-9-|
-7-7-7-2-2-2-4-4-4-7-7-7-7-7-7-9-9-9-9-9-9-9-9-|
-7-7-7-2-2-2-4-4-4-5-5-5-7-7-7-7-7-7-7-7-7-7-7-|
-5-5-5-0-0-0-2-2-2-------5-5-5-----------------|
solo
E|--------------------------------------------------------------------
B|-5--5-5-5--5-5-7--7-7-5--5-5-5--5-5-5--5-5-5--5-5-5-3-3-3--5-5-5--5-
G|--------------------------------------------------------------------
---------------------------2-0-------|
-0h2-2-2-2--3-3-3-2--2-2-2-----2-0---|
-----------------------------------2-|
-------------------------------------|
-------------------------------------|
-------------------------------------|
|-2--2-2-3--3-3-2--2-2-0--0-0--2--2-2-3--3-3-2--2-2-5--5-5-
|-2--2-2-3--3-3-2--2-2-0--0-0--2--2-2-3--3-3-2--2-2-5--5-5-
|----------------------------------------------------------
|----------------------------------------------------------
|----------------------------------------------------------
|----------------------------------------------------------
-2--2-2-3--3-3-2--2-2-0--0-0--2--2-2-3--3-3-2--2-2-5--5-5-5-5-5-5-5-|
-2--2-2-3--3-3-2--2-2-0--0-0--2--2-2-3--3-3-2--2-2-5--5-5-5-5-5-5-5-|
---------------------------------------------------------------------|
---------------------------------------------------------------------|
---------------------------------------------------------------------|
---------------------------------------------------------------------|
If you have any questions or commtents, email me at
[email protected]
[email protected]________
Get Your Private, Free E-mail from MSN Hotmail at http://www.hotmail.com.




Ваше мнение



Капча