TAKE BACK -
green day
Tabbed by KoRny Freak

verse
|--------------------------------|
|--------------------------------|
|--------------------------------|
|-9--9--9--9-9-7-7-7-10-10-10-10-|
|-9--9--9--9-9-7-7-7-10-10-10-10-|
|-7--7--7--7-7-5-5-5--8--8--8--8-|

chorus
|----------------------------|
|----------------------------|
|-8--8--8--8-8-------9-9-9-9-|
|-8--8--8--8-8-8-8-8-9-9-9-9-|
|-6--6--6--6-6-8-8-8-7-7-7-7-|
|--------------6-6-6---------|




Ваше мнение



Капча