Song: Stuart and the Avenue
Artist: Green Day
Album: Insomniac

Man, whoever put up the last tabs was way off. These tabs are much better than the old ones. Make sure you tune a 1/2 step down because the song was played in Eb Ab Db Gb on the CD and it's impossible to get the Eb(-0-) in the verse and bridge while tuned to standard tuning(E A D G).

Intro
Gb-------------------------------------------------------
Db--0-0-0-4-2-0-2-2-2-2-2-4-5----------5-7--5-4----------
Ab-----------------------------------5----------7-5-4----
Eb----------------------------3--3-3------------------7--

Verse (Play it in order as you see it, one time for each)
Gb------------------------------------------------------
Db--0-0-0-4-2-0--------------------------5--------------
Ab------------------------------------5-----------------
Eb--------------0-0-0-0-0-0-3-3-3-3-3------5-5-5-5-5-5--

Gb-------------------------------------------------------
Db--0-0-0-4-2-0-2-2-2-2-2-2-4-5-5-5-5-5-5-7-7-7-7-5-4-0--
Ab-------------------------------------------------------
Eb-------------------------------------------------------
Pre-Chorus
Gb-----------------------------------------------------
Db--0-0-0-4-2-0-2-2-2-2-2-2-4-5-5-5-5-5-5-7-7-7-7-7-7--
Ab-----------------------------------------------------
Eb-----------------------------------------------------

Chorus X2
Gb-----------------------|-----------------------------------------|-----------------------
Db------4-2--------------|--0-0-0-4-2-0-2-2-2-2-2-2-4-5-5-5-5-5-5--|--0-0-0-0-0------------
Ab--2-2-----4------------|-----------------------------------------|------------0-0-0-0-0--
Eb------------3-3-3-3-3--|-----------------------------------------|-----------------------

Bridge (Play them in order as you see them, only once for each)
Gb------------------------------------------------------
Db--0-0-0-4-2-0--------------------------5--------------
Ab------------------------------------5----5-5-5-5-5-5--
Eb--------------0-0-0-0-0-3-3-3-3-3-3-------------------

Gb---------------------------------------------------------
Db--0-0-0-4-2-0-2-2-2-2-2-2-4-5-5-5-5-5-5-7-5-4------------
Ab----------------------------------------------7-5-4------
Eb----------------------------------------------------7-5--

Gb-------------------------------------------------------
Db--0-0-0-4-2-0-2-2-2-2-2-2-4-5-5-5-5-5-5-7-7-7-7-7-7--
Ab-------------------------------------------------------
Eb-------------------------------------------------------

Gb------------------------------------------------------
Db--0-0-0-4-2-0--------------------------5--------------
Ab------------------------------------5-----------------
Eb--------------0-0-0-0-0-3-3-3-3-3-3------5-5-5-5-5-5--

Outro Chorus X2 X3
Gb-----------------------|-----------------------------------------|-----------------------
Db------4-2--------------|--0-0-0-4-2-0-2-2-2-2-2-2-4-5-5-5-5-5-5--|--0-0-0-0-0------------
Ab--2-2-----4------------|-----------------------------------------|------------0-0-0-0-0--
Eb------------3-3-3-3-3--|-----------------------------------------|-----------------------

Intro X1
Verse X2
Pre-Chorus X1
Chorus X1
Verse X2
Pre-Chorus X1
Chorus X1
Bridge X1
Outro Chorus X1

This tab was created by Christian Mangs. Email me at:
[email protected]




Ваше мнение



Капча