Joe 201 ([email protected])
Group: Green Day
Album: Insomniac
Released: 1995 reprise records
Track: 9
Title: stuart and the ave
pm - palm mute
**tune Ѕ step down*
intro
pm______________|
|------------------------|
|------------------------|
|-7--------7-7-7-7-7-7-7-|
|-7--------7-7-7-7-7-7-7-|
|-5--------5-5-5-5-5-5-5-|
|------------------------|
verse
|-----------------------------------------------------------------
|-----------------------------------------------------------------
|-7-7-7-7-7-7-7-7---------------------------------7-7-7-7-7-7-7-7-
|-7-7-7-7-7-7-7-7-2-2-2-2-2-2-2-2-5-5-5-5-5-5-5-5-7-7-7-7-7-7-7-7-
|-5-5-5-5-5-5-5-5-2-2-2-2-2-2-2-2-5-5-5-5-5-5-5-5-5-5-5-5-5-5-5-5-
|-----------------0-0-0-0-0-0-0-0-3-3-3-3-3-3-3-3-----------------
-----------------------------------------------------------------|
-----------------------------------------------------------------|
-7-7-7-7-7-7-7-7-------------------------------------------------|
-7-7-7-7-7-7-7-7-2-2-2-2-2-2-2-2-5-5-5-5-5-5-5-5-7-7-7-7-7-7-7-7-|
-5-5-5-5-5-5-5-5-2-2-2-2-2-2-2-2-5-5-5-5-5-5-5-5-7-7-7-7-7-7-7-7-|
-----------------0-0-0-0-0-0-0-0-3-3-3-3-3-3-3-3-5-5-5-5-5-5-5-5-|
chorus
|-------------------------|
|-------------------------|
|-4-4-4-4-4-4-------------|
|-4-4-4-4-4-4-5-5-5-5-5-5-|
|-2-2-2-2-2-2-5-5-5-5-5-5-|
|-------------3-3-3-3-3-3-|

|-----------------------------------------------------------------|
|-----------------------------------------------------------------|
|-7-7-7-7-7-7-------------------------------7-7-7-7-7-------------|
|-7-7-7-7-7-7-2-2-2-2-2-2-5-5-5-5-5-5-------7-7-7-7-7-7-7-7-7-7-7-|
|-5-5-5-5-5-5-2-2-2-2-2-2-5-5-5-5-5-5-------5-5-5-5-5-7-7-7-7-7-7-|
|-------------0-0-0-0-0-0-3-3-3-3-3-3-----------------5-5-5-5-5-5-|
====
Green Day - Stuart and the Ave
Tabbed By: Daniel
EMail: Taylor
Intro and Verses
e------------------------------------------------
B------------------------------------------------
G---7-----------7-----7--------------------------
D---7---2---5---7-----7---2---5---7--------------
A---5---2---5---5-----5---2---5---7--------------
E-------0---3-------------0---3---5--------------
Chorus
e------------------------------------------------
B------------------------------------------------
G--4-----4------7--------------------------------
D--4--5--4--5---7---2----5-----------------------
A--2--5--2--5---5---2----5-----------------------
E-----3-----3-------0----3-----------------------
Interlude
e------------------------------------------------
B------------------------------------------------
G---7-----------7-----7--------------------------
D---7---2---5---7-----7---2---5---7--------------
A---5---2---5---5-----5---2---5---7--------------
E-------0---3-------------0---3---5--------------
Play about 4 times
End on
e------------
B------------
G----7-------
D----7-------
A----5-------
E------------
Work out the strumming yourself it is very, very easy.
Daniel Taylor ([email protected])




Ваше мнение



Капча