GREEN DAY - STRANGLAND
Tabbed By: NICK WALTON
EMail: [email protected]
verse
|-------------------------------|
|-------------------------------|
|-6-6-6-6-6-6-6-6-6-6-6-6-6-6-6-|
|-6-6-6-6-6-6-6-6-6-6-6-6-6-6-6-|
|-4-4-4-4-4-4-4-4-4-4-4-4-4-4-4-|
|-------------------------------|
|--------------------------------|
|--------------------------------|
|--------------------------------|
|-6-6-6-6-6-6-6----6-6-6-6-6-6-6-|
|-6-6-6-6-6-6-6----6-6-6-6-6-6-6-|
|-4-4-4-4-4-4-4----4-4-4-4-4-4-4-|

chorus
|-----------------------------------------|
|-----------------------------------------|
|-----------6-6-6-6-6---------------------|
|-4-4-4-4-4-6-6-6-6-6-4-4-4-4-4-6-6-6-6-6-|
|-4-4-4-4-4-4-4-4-4-4-4-4-4-4-4-6-6-6-6-6-|
|-2-2-2-2-2-----------2-2-2-2-2-4-4-4-4-4-|




Ваше мнение



Капча