Tabbed By: Chris
Band:Green Day
Song:Sick of Me
Album:Shenanigans (2002 Reprise Records)
Guitar:Billie Joe Armstrong
Track:10

Key:
pm-palm mute
x-mute
~-let ring

Verse:
G5 C5 F5 G5
e-------------------------------------------|
b-------------------------------------------|
g-----------------------------------5-------|
D---5-5-5-5-5-5-5-5-5-5-5-5-5-5-5-5-5-3-5---|(x4)
A---5-5-5-5-5-5-5-5-5-5-5-5-5-5-5-5-3-3-5---|
E---3-3-3-3-3-3-3-3-3-3-3-3-3-3-3-3---1-3---|
pm---------------------------------|

Chorus:

e-----------------------------------------------------------|
b-----------------------------------------------------------|
g---5-5-5-5---------5---7-----------5-5-5-5---------5---7---|
D---5-5-5-5-5-5-5-5-5-5-7-5-5-5-5---5-5-5-5-5-5-5-5-5-5-7---|
A---3-3-3-3-5-5-5-5-3-5-5-5-5-5-5---3-3-3-3-5-5-5-5-3-5-5---|
E-----------3-3-3-3---3---3-3-3-3-----------3-3-3-3---3-----|

F5
e-----------------------------|
b-----------------------------|
g---10-10-10-10-10-10-10-10---|
D---10-10-10-10-10-10-10-10---|
A---8--8--8--8--8--8--8--8----|
E-----------------------------|

Verse x4

Chorus x1

Interlude/Outro:
D5 F5
e---------------------------------------------|
b---------------------------------------------|
g---7-7-7-7-7-7-7-7-7-7-7-7-7-7-7-7-10-1010---|
D---7-7-7-7-7-7-7-7-7-7-7-7-7-7-7-7-10-1010---|(x4)
A---5-5-5-5-5-5-5-5-5-5-5-5-5-5-5-5-8--8-8----|
E---------------------------------------------|

Bridge:

e-------------|
b-------------|
g---x-x-x-x---|
D---x-x-x-x---|
A---x-x-x-x---|
E-------------|

Verse x4

Chorus x1

Outro x4




Ваше мнение



Капча