Green Day - Scumbag
Submitted By: Chris
EMail: [email protected]
Album:Shenanigans (2002 Reprise Records)
Track:8
Guitar:Billie Joe Armstrong

Guitar I-Medium Distortion
Guitar II-Clean Electric (Light Distortion)

Key:
~-let ring
/-slide

Gtr. I
Verse:
E5 Gb5 E5 B5
e----------------------|
b----------------------|
g---------4-44444444---|
D---2-4-2-4-44444444---|(x2)
A---2-4-2-2-22222222---|
E---0-2-0--------------|

E5 Gb5 E5
e----------------------------|
b----------------------------|
g----------------------------|
D---2-4-2-2222222-22222222---|(x2)
A---2-4-2-2222222-22222222---|
E---0-2-0-0000000-00000000---|

Verse x2

Chorus:
E5 Gb5 E5 G#5 B5 E5 Gb5 E5 G# Gb5
e--------------------------------------------------|
b--------------------------------------------------|
g--------------------44444444----------------------|
D---2-4-2-6-66666666-44444444-2-4-2-6-66666666-4---|
A---2-4-2-6-66666666-22222222-2-4-2-6-66666666-4---|
E---0-2-0-4-44444444----------0-2-0-4-44444444-2---|

Verse x2

Chorus x1

Gtr. I
Solo:

e---------------------------------------------|
b--------------------------------------7-7~---|
g---8-8-6-8--8-6-8-6----8-8-6-8--8-6-8--------|
D--------------------9~-----------------------|
A---------------------------------------------|
E---------------------------------------------|

e------------------------------------------------|
b------------------------------------------------|
g---/9999/8888/6666-------/9999/8888/6666--------|(x2)
D------------------/9999-----------------/9999---|
A------------------------------------------------|
E------------------------------------------------|

Gtr. I plays verse x2

Chorus x1

Don't play final Gb5.

That's the whole song. It's all pretty simple.
Good luck!




Ваше мнение



Капча