SCATTERED
GREEN DAY
Tabbed by: KoRny Freak ([email protected])
intro/bridge
|---------------------------|-------------|
|---------------------------|-------------|
|-4--4--4-4-4-4-------------|-4-4-4-4-4-4-|
|-4--4--4-4-4-4-7-6-2-2-2-2-|-4-4-4-4-4-4-|
|-2--2--2-2-2-2-7-6-2-2-2-2-|-2-2-2-2-2-2-|
|---------------5-4-0-0-0-0-|-------------|
verse
|-----------------------------------------------------------------|
|-----------------------------------------------------------------|
|-----------------------------------------------------------------|
|-2-2-2-2-2-2-2-2-6-6-6-6-6-6-6-6-7-7-7-7-7-7-7-7-9-9-9-9-9-9-9-9-|
|-2-2-2-2-2-2-2-2-6-6-6-6-6-6-6-6-7-7-7-7-7-7-7-7-9-9-9-9-9-9-9-9-|
|-0-0-0-0-0-0-0-0-4-4-4-4-4-4-4-4-5-5-5-5-5-5-5-5-7-7-7-7-7-7-7-7-|
chorus
|-------------------------------------------------------------
|-------------------------------------------------------------
|-6-6-6-6-6-6-9-9-9-9-9-9-------------------------------------
|-6-6-6-6-6-6-9-9-9-9-9-9-9-9-9-9-9-9-7-7-7-7-7-7-4-4-4-4-4-4-
|-4-4-4-4-4-4-7-7-7-7-7-7-9-9-9-9-9-9-7-7-7-7-7-7-4-4-4-4-4-4-
|-------------------------7-7-7-7-7-7-5-5-5-5-5-5-2-2-2-2-2-2-
----------------------------------|
----------------------------------|
-------------9--9-9--9--9-9-9-9-9-|
-7-7-7-7-7-7-9--9-9--9--9-9-9-9-9-|
-7-7-7-7-7-7-7--7-7--7--7-7-7-7-7-|
-5-5-5-5-5-5----------------------|
If you have any questions or comments, email me at
[email protected]
[email protected]________
Get Your Private, Free E-mail from MSN Hotmail at http://www.hotmail.com.




Ваше мнение



Капча