green day
road to acceptance
39/smooth
standard tuning
chords
|-------------------------|
|-----------2-------------|
|-4--2------3--5-----7----|
|-4--2--4---0--5--5--7----|
|-2--0--4------3--5--5----|
|-------2---------3-------|
B5 A5 F#5 D5 C5 G5 D5(2)
opening
|------------------------------------|
|-7-7-7-8-8-8-8-8-10-10-10-8-8-8-8-8-|
|-7-7-7-7-7-7-7-7-7--7--7--7-7-7-7-7-|
|------------------------------------|
|---------first 3 times--------------|
|------------------------------------|
|--------------------------------|
|-7-7-7-8-8-8-8-8-10-10-10--etc--|
|-7-7-7-7-7-7-7-7-7--7--7---etc--|
|--------------------------------|
|----------last time-------------|
|--------------------------------|
|-------------------------|-------------------------|
|-------------------------|-------------------------|
|---0---0-------0---0-----|---0---0-----7-----------|
|-4---5---5---7---5---5---|-4---5---5---7-----------|
|-5---5---5-0-5---5---5-0-|-5---5---5-0-5etc--------|
|-------------------------|-------------------------|
play first riff 5 times then play second riff once
B5 A5
feel forgotten, feel like rotten
F#5 D5 A5
do you feel the same
F#5 D5 A5
do you feel the same
B5 A5
adolescence, just can't make sense
F#5 D5 A5
it's calling my name
F#5 D5 A5
it's calling my name
D5 C5 G5
I take a look around, at all the things I've found, I call
D5 C5
it blind hatred, and if you'd stop awhile, and maybe if
G5 D5 C5 D5
you'd smile, you would realise that we're all the same,
C5 G5 C5 G5 C5
it's just like our brain, when it goes insane, we feel the
G5
same pain
thats pretty much except for some other variations on later parts. have fun




Ваше мнение



Капча