REJECT
green day
Tabbed by KoRny Freak
verse
|-----------------------------------------------------------------
|-----------------------------------------------------------------
|-4-4-4-4-4-4-4-4-4-4-4-4-4-4-4-4---------------------------------
|-4-4-4-4-4-4-4-4-4-4-4-4-4-4-4-4-6-6-6-6-6-6-6-6-6-6-6-6-6-6-6-6-
|-2-2-2-2-2-2-2-2-2-2-2-2-2-2-2-2-6-6-6-6-6-6-6-6-6-6-6-6-6-6-6-6-
|---------------------------------4-4-4-4-4-4-4-4-4-4-4-4-4-4-4-4-
-----------------------------------------------------------------|
-----------------------------------------------------------------|
-6-6-6-6-6-6-6-6-6-6-6-6-6-6-6-6---------------------------------|
-6-6-6-6-6-6-6-6-6-6-6-6-6-6-6-6-4-4-4-4-4-4-4-4-4-4-4-4-4-4-4-4-|
-4-4-4-4-4-4-4-4-4-4-4-4-4-4-4-4-4-4-4-4-4-4-4-4-4-4-4-4-4-4-4-4-|
---------------------------------2-2-2-2-2-2-2-2-2-2-2-2-2-2-2-2-|
chorus
|-----------------------------------------------------------------|
|-----------------------------------------------------------------|
|---------------------------------4-4-4-4-4-4-4-4-4-4-4-4-4-4-4-4-|
|-2-2-2-2-2-2-2-2-5-5-5-5-5-5-5-5-4-4-4-4-4-4-4-4-4-4-4-4-4-4-4-4-|
|-2-2-2-2-2-2-2-2-5-5-5-5-5-5-5-5-2-2-2-2-2-2-2-2-2-2-2-2-2-2-2-2-|
|-0-0-0-0-0-0-0-0-3-3-3-3-3-3-3-3---------------------------------|
|----------------------------------------------
|----------------------------------------------
|---------4-4-4-4-4-4-4------------------------
|-2-2-x-x-4-4-4-4-4-4-4--2-2-x-x-6-6-6-6-6-6-6-
|-2-2-x-x-2-2-2-2-2-2-2--2-2-x-x-6-6-6-6-6-6-6-
|-0-0-x-x----------------0-0-x-x-4-4-4-4-4-4-4-
-----------------------------------------------------|
-----------------------------------------------------|
-----------------------------------------------------|
-5-5-5-5-5-5-5-5-5-5-5-5-5-4-4-4-4-4-4-4-4-4-4-4-4-4-|
-5-5-5-5-5-5-5-5-5-5-5-5-5-4-4-4-4-4-4-4-4-4-4-4-4-4-|
-3-3-3-3-3-3-3-3-3-3-3-3-3-2-2-2-2-2-2-2-2-2-2-2-2-2-|
post chorus
|----------------------------|
|----------------------------|
|-----------9----------------|
|-9-9-9-9-9-9---9-9-9-9-9-7--|
|-9-9-9-9-9-7---9-9-9-9-9-7--|
|-7-7-7-7-7-----7-7-7-7-7-5--|
|----------------|
|----------------|
|-----4--4-4-4-4-|
OUTRO |-2-5-4--4-4-4-4-|
|-2-5-2--2-2-2-2-|
|-0-3------------|




Ваше мнение



Капча

Комментарии

хуй вам а не имя!
что за хуета!!?где аккорды!?