PROSTHETIC HEAD
green day
Tabbed by KoRny Freak

verse - chorus played the same with distortion
|------------------------------|
|------------------------------|
|-9-9------------7-7-----------|
|-9-9-x-9-9-9-9--7-7-x-7-7-7-7-|
|-7-7-x-9-9-9-9--5-5-x-7-7-7-7-|
|-----x-7-7-7-7------x-5-5-5-5-|

pre-chorus
|-----------------------------|
|-----------------------------|
|---------------------------9-|
|-9-9-9-9-9-9-9-9-9-9-9-9-9-9-|
|-9-9-9-9-9-9-9-9-9-9-9-9-9-7-|
|-7-7-7-7-7-7-7-7-7-7-7-7-7---|

bridge
|------------------------------------------------------------|
|------------------------------------------------------------|
|---x-/9-9--x---------------------------x-7-7----------------|
|-9-x-/9-9--x-/7-7-4-4---x-9-9--x-7-7--x-7-7--x-7-7-7-7-7-7-|
|-9-x-/7-7--x-/7-7-4-4---x-9-9--x-7-7--x-5-5--x-7-7-7-7-7-7-|
|-7-----------/5-5-2-2---x-7-7--x-5-5---------x-5-5-5-5-5-5-|

|---------------------------------|
|---------------------------------|
|---------------------------------|
|-9-9-9-9-9-9-9-9-9-9-9-9-9-9-9-9-|
|-9-9-9-9-9-9-9-9-9-9-9-9-9-9-9-9-|
|-7-7-7-7-7-7-7-7-7-7-7-7-7-7-7-7-|




Ваше мнение



Капча