Artist: Green Day
Song: Poprocks & Coke
Album: Green Day: International Superhits (2001)
Note: Listen to the song for strumming patterns
Intro
e --------------------------------------------
B ---5---5-------5-------5-----------5---5----
G ---6---6---9---6---7---6---9---7---6---6----
D ---7---7---9---7---7---7---9---7---7---7----
A ---7---7---7---7---5---7---7---5---7---7----
E ---5---5-------5-------5-----------5---5----
Chorus
------------------------
-------5-----------5----
---7---6---9---7---6----
---7---7---9---7---7----
---5---7---7---5---7----
-------5-----------5----
Verse 1
-----------------------------------------------------------
-----------2---------------------------------------5---5---
---7-------2-------7-------9---7---7-------9---7---6---6---
---7---2---4---2---7---7---9---7---7---7---9---7---7---7---
---5---2---4---2---5---7---7---5---5---7---7---5---7---7---
-------0---2---0-------5---------------5-----------5---5---
Bridge
---------------------------
---------------------------
---9-----------------------
---9-----------------------
---7-----------------------
-------5555555555555555----
Verse 2
--------------------------------------------------------
--------------------------------------------------------
-----------------------7---6-----------------------7----
---7---2---4---2---7---7---6---7---2---4---2---7---7----
---7---2---4---2---7---5---4---7---2---4---2---7---5----
---5---0---2---0---5-----------5---0---2---0---5--------
---------------------
-------------10-9----
---6---7---9---------
---6---7---9---------
---4---5---7---------
---------------------

Ending |------x2------|
--------------------------------------------------------
-------5-----------5-----------2------------------------
---7---6---9---7---6---7-------2-------7-------9---7----
---7---7---9---7---7---7---2---4---2---7---7---9---7----
---5---7---7---5---7---5---2---4---2---5---7---7---5----
-------5-----------5-------0---2---0-------5------------
|--x4---|
----------------------------
---------------5-------5----
---7-------9---6---9---6----
---7---7---9---7---9---7----
---5---7---7---7---7---7----
-------5-------5-------5----
ORDER:
Intro
Chorus
Verse 1
Bridge
Chorus
Verse 1
Verse 2
Ending




Ваше мнение



Капча