PLATYPUS (I HATE YOU)
Green Day
Tabbed by KoRny Freak

intro
|-----------------|
|-----------------|
|-----------------|
|-9-9-9-9-9-9-5-4-|
|-9-9-9-9-9-9-5-4-|
|-7-7-7-7-7-7-3-2-|

|---------------------------------------------------------------|
|---------------------------------------------------------------|
|-----------------9-9-9-9--------------------------9------------|
|-9-9-9-9-7-7-7-7-9-9-9-9-9-9-9-9--9-9-9-9-7-7-7-7-9------4-5-7-|
|-9-9-9-9-7-7-7-7-7-7-7-7-9-9-9-9--9-9-9-9-7-7-7-7-7------4-5-7-|
|-7-7-7-7-5-5-5-5---------7-7-7-7--7-7-7-7-5-5-5-5--------2-3-5-|

verse
|---------------------------------|
|---------------------------------|
|-----------------9-9-9-9---------|
|-9-9-9-9-7-7-7-7-9-9-9-9-9-9-9-9-|
|-9-9-9-9-7-7-7-7-7-7-7-7-9-9-9-9-|
|-7-7-7-7-5-5-5-5---------7-7-7-7-|

chorus
|-----------------------------------------------------------------
|-----------------------------------------------------------------
|-----------------------------------------9-9-9-------------------
|-7-7-7-7-7-7-7-7-7-7-7-7-7-7-7-7-7-7-7-7-9-9-9-9-9-9-9-9-9-9-9-9-
|-7-7-7-7-7-7-7-7-7-7-7-7-7-7-7-7-7-7-7-7-7-7-7-9-9-9-9-9-9-9-9-9-
|-5-5-5-5-5-5-5-5-5-5-5-5-5-5-5-5-5-5-5-5-------7-7-7-7-7-7-7-7-7-

-----------------------------------------------------------------
-----------------------------------------------------------------
-----------------------------------------------------------------
-7-7-7-7-7-7-7-7-7-7-7-7-7-7-7-7-7-7-7-7-4-4-4-4-4-4-4-4-4-4-4-4-
-7-7-7-7-7-7-7-7-7-7-7-7-7-7-7-7-7-7-7-7-4-4-4-4-4-4-4-4-4-4-4-4-
-5-5-5-5-5-5-5-5-5-5-5-5-5-5-5-5-5-5-5-5-2-2-2-2-2-2-2-2-2-2-2-2-

---------------------------------------------|
---------------------------------------------|
-9-9-9-------------9-9-9---------------------|
-9-9-9-9-9-9-9-9-9-9-9-9-9-9-9-9-9-9-9-9-9-9-|
-7-7-7-9-9-9-9-9-9-7-7-7-9-9-9-9-9-9-9-9-9-9-|
-------7-7-7-7-7-7-------7-7-7-7-7-7-7-7-7-7-|

if you have any questions or comments, email me at
[email protected]




Ваше мнение



Капча