Song Title: Panic Song
Artist: Green Day
----------------------------------------------

BASS TAB Written by: Jeff Mitchell ([email protected])

Panic Song by Green Day

G|--------------------------------------------------------------
D|--------------------------------------------------------------
A|-----------------1-1-1-1--------------------------------------
E|-3-3-3-3-1-1-1-1---------3-3-3-3-3-3-3-3-3-1-1-1-1-1-1-1-1-1-

G|----------------------------------------------------------------
D|-----------------------------------------1-1-1-1-1---------------
A|---------1-1-1-1-1-1---------1-1-1-1-1-1-----------1-1-1-1-1-3---
E|-1-1-1-1-------------1-1-1-1-----------------------------------1-

G|----------------------------------------------------------------------
D|----------------------------------------------------------------------
A|-1-1-1-1-----------------1-1-1-1--------------------------------------
E|---------3-3-3-3-1-1-1-1---------3-3-3-3-3-3-3-3-3-1-1-1-1-1-1-1-1-1--

G|-----------------------------------------------------------------
D|-----------------------------------------1-1-1-1-1---------------
A|---------1-1-1-1-1-1---------1-1-1-1-1-1-----------1-1-1-1-1-3---
E|-1-1-1-1-------------1-1-1-1-----------------------------------1-

G|----------------




Ваше мнение



Капча