Green Day - Outsider
By:Andrew Mcshan([email protected])
Heres a song that green day did, its a ramones cover, easy song!
Intro
E-------------------------------------------|
B-------------------------------------------|
G-------------------------------------------|
D----7-7-7-7-7-7-7-7-7---5-5-5-5-5-5-5-5-5--|
A----7-7-7-7-7-7-7-7-7---5-5-5-5-5-5-5-5-5--|
E----5-5-5-5-5-5-5-5-5---3-3-3-3-3-3-3-3-3--|
Verse
E---------------------------------------------------|
B---------------------------------------------------|
G---------------------------------------------------|
D----7-7-7-7-7-7-7-7-7---5-5-5-5-5-5-5-5-5----------|
A----7-7-7-7-7-7-7-7-7---5-5-5-5-5-5-5-5-5----------|
E----5-5-5-5-5-5-5-5-5---3-3-3-3-3-3-3-3-3-3-5-7-5--|
Chorus
E-------------------------------------------|
B-------------------------------------------|
G-------------------------------------------|
D----5-5-5-5-5-5-5-5-5---7-7-7-7-7-7-7-7-7--|
A----5-5-5-5-5-5-5-5-5---7-7-7-7-7-7-7-7-7--|
E----3-3-3-3-3-3-3-3-3---5-5-5-5-5-5-5-5-5--|
Interlude
E-----------------------------------------|
B-----------------------------------------|
G----6-6-6-6-6----------------------------|
D----6-6-6-6-6-6-6-6-6-6-4-4-4-4-4-4-4-4--|
A----4-4-4-4-4-6-6-6-6-6-4-4-4-4-4-4-4-4--|
E--------------4-4-4-4-4-2-2-2-2-2-2-2-2--|




Ваше мнение



Капча