te: Tue, 12 May 1998 14:03:08 -0700
From: Mike Williams
Subject: g/green_day/one_of_my_lies.crd
Intro:
Eb|-----------------------------------------------------------------
Bb|-----------------------------------------------------------------
Gb|-X-7-7-7-7-7------------------------------------------------
Db|-X-7-7-7-7-7--7-7-7-7-7--5--4-4--5-5-5--4--5--7---
Ab|-X-5-5-5-5-5--7-7-7-7-7--5--4-4--5-5-5--4--5--7---
Eb|--------------5-5-5-5-5--3--2-2--3-3-3--2--3--5--- x2
Verse
Eb|----------------------------------------------------------------
Bb|-----------------------------------------------------------------
Gb|---7-7-7-7-7--------------4-4-4-4-------------------------
Db|---7-7-7-7-7--7-7-7-7--4-4-4-4--4-4-4-4--5-5-5-5--
Ab|---5-5-5-5-5--7-7-7-7--2-2-2-2--4-4-4-4--5-5-5-5--
Eb|--------------5-5-5-5-----------2-2-2-2--3-3-3-3-- x2
"When I was younger I thought that the world...."
Pre-Chorus
Eb|--------------------------------------------------------
Bb|--------------------------------------------------------
Gb|--------------------------------------------------------
Db|--5-5-5-5--7-7-7-7--------------------------------
Ab|--5-5-5-5--7-7-7-7--------------------------------
Eb|--3-3-3-3--5-5-5-5-------------------------------- x4
"Do you Think you're indistructble and no one can..."
Chorus
Eb|-----------------------------------------------------------
Bb|-----------------------------------------------------------
Gb|--7-7-7-7-----------------------------------------------
Db|--7-7-7-7--9--7-7-7-7--------------------------------
Ab|--5-5-5-5--9--7-7-7-7--------------------------------
Eb|--------------7--5-5-5-5-------------------------------- x5
Outro: P.M.
Eb|----------------------------------------------------------------
Bb|----------------------------------------------------------------
Gb|---7-7-7-7-7------------------------------------------------
Db|---7-7-7-7-7--7-7-7-7-7--5--4-4--5-5-5--4--5--7---
Ab|---5-5-5-5-5--7-7-7-7-7--5--4-4--5-5-5--4--5--7---
Eb|--------------5-5-5-5-5--3--2-2--3-3-3--2--3--5--- x5
Note: Play this Palm Muted and hit you're high E and
B string's randomly to get those high parts
Verse Lyrics:
When I was younger I thought the world circled around me
But in time I realized I was wrong
My immortal thoughts turned into just dreams of a dead future
It was a tragic case of my reality
Pre Chorus:
Do you think you're indestructable
And no one can touch you
Well I think you're disposeable
And it's time you knew the truth...
Chorus:
Cause it's just one of my lies!
Well, its just its just one of my lies
And all I wanted to was get real high
Well, its just its just one of my lies
Verse2 Lyrics/w Verse 1 chords
Why does my life have to be so small?
Yet death is forever
And does forever have a life to call its own?
Don't give me an answer cause you
Only know as much as I know
Unless you're been there once
Well I hardly think so
Pre Chorus:
Do you think you're indestructable
And no one can touch you
Well I think you're disposeable
And it's time you knew the truth...
Chorus:
Cause it's just one of my lies!
Well, its just its just one of my lies
And all I wanted to was get real high
Well, its just its just one of my lies
Pre Chorus Chords:
I used to pray all night
Before I lay myself down
My mother said it was right
Her mother said it too...
Why?




Ваше мнение



Капча