Here's the intro

PLAY THIS FOUR TIMES
|---------------------------------|
|---------------------------------|
|---------------------------------|
|------7-7--5-5-5-5-5-5-----------|
|-5-5--5-5--3-3-3-3-3-3-----------|
|-3-3-----------------------------|
While he's singing play this

PLAY THIS FOUR TIMES
|--------------------------------------------------|
|--------------------------------------------------|
|--------------------------------------------------|
|------------7-7-7-7-7-7--5-5-5-5-5----------------|
|-5-5-5-5-5--5-5-5-5-5-5--3-3-3-3-3--5-5-5-5-5-5---|
|-3-3-3-3-3--------------------------3-3-3-3-3-3---|
Chorus (he plays the same chord for a while so I sort of abreviated it)
PLAY THIS TWICE
16x
|--------|----------------------|
|--------|----------------------|
|--------|----------------------|
|---9----|-5-----9------9-9-9-9-|
|---7----|-3--5--7------7-7-7-7-|
|--------|----3-----------------|
PLAY THIS ONCE
|-----------------------------------------------------------------------------|
|-----------------------------------------------------------------------------|
|-----------------------------------------------------------------------------|
|------------4-4-4-4-4-4--5-5-5-5-5--8-8-8-8-8-8-------------7----------------|
|-5-5-5-5-5--2-2-2-2-2-2--3-3-3-3-3--6-6-6-6-6-6--5-5-5-5-5--5----------------|
|-3-3-3-3-3---------------------------------------3-3-3-3-3-------------------|
(Then go back to the begining of the page, he plays it all over again)




Ваше мнение



Капча