Green Day - Minority from Warning
This is accurate
Tabulature legend:
h - hammer on
/ - slide
. - staccato note (indicted above notes)
tri - play notes in a triplet (3 notes in 2)
Order of song:
intro/outro 1x
chorus 4x
verse 1x
chorus 4x
bridge 1x
verse 1x
chorus 4x
bridge 1x
interlude 1x
verse 1x
chorus 3x
guitar solo 1x (chorus 5x)
intro/outro 1x
132 bpm
Intro/Outro - Acoustic Guitar using finger picking
C G Fmaj7 C G
E----------------------|-------0--------------|----------------------|
B-------1----------3---|---1-----1--------1---|-------1----------3---|
G---0-----0----0-----0-|-----2----------0---0-|-----0---0----0-----0-|
D-----2----------0-----|-3----------0h2-------|-0h2------------0-----|
A-3--------------------|----------------------|----------------------|
E------------3---------|----------------------|------------3---------|
|-Tri-| |-Tri-| |-Tri-| |-Tri-| |-Tri-| |-Tri-|
E----------------------|
B----------------------|
G-2---0----------------|
D-3---2-0-2------------|
A---------3------------|
E----------------------| end intro/outro
Chorus - Acoustic Guitar and Electric guitar
C F G F
E------------1-1-1-1-x-|-3-3-3-3-x-1-1-1-1-x-|
B--5-5-5-5-x-1-1-1-1-x-|-3-3-3-3-x-1-1-1-1-x-|
G--5-5-5-5-x-2-2-2-2-x-|-4-4-4-4-x-2-2-2-2-x-|
D--5-5-5-5-x-3-3-3-3-x-|-5-5-5-5-x-3-3-3-3-x-|
A--3-3-3-3-x-3-3-3-3-x-|-5-5-5-5-x-3-3-3-3-x-|
E------------1-1-1-1-x-|-3-3-3-3-x-1-1-1-1-x-| 4x end chorus
|-Tri-| |-Tri-| |-Tri-| |-Tri-|
Verse - Acoustic Guitar
C G Fmaj7 C G F G
E-0----0-x-3----3-x-|-0----0-x-0----0-x-|-0----0-x-3----3-x-|-1----1-x-3----3-x|
B-1----1-x-3----3-x-|-1----1-x-1----1-x-|-1----1-x-3----3-x-|-1----1-x-3----3-x|
G-0----0-x-0----0-x-|-2----2-x-0----0-x-|-0----0-x-0----0-x-|-2----2-x-0----0-x|
D-2----2-x-0----0-x-|-3----3-x-2----2-x-|-2----2-x-0----0-x-|-3----3-x-0----0-x|
A-3----3-x-2----2-x-|----------3----3-x-|-3----3-x-2----2-x-|-3----3-x-2----2-x|
E----------3----3-x-|-------------------|----------3----3-x-|-1----1-x-3----3-x|
C G Fmaj7 C F G C
E-0----0-x-3----3-x-|-0----0-x-0----0-x-|-0----0-x-1----1-x-|-3----3-x-0----0-x|
B-1----1-x-3----3-x-|-1----1-x-1----1-x-|-1----1-x-1----1-x-|-3----3-x-1----1-x|
G-0----0-x-0----0-x-|-2----2-x-0----0-x-|-0----0-x-2----2-x-|-0----0-x-0----0-x|
D-2----2-x-0----0-x-|-3----3-x-2----2-x-|-2----2-x-3----3-x-|-0----0-x-2----2-x|
A-3----3-x-2----2-x-|----------3----3-x-|-3----3-x----------|-2----2-x-3----3-x|
E----------3----3-x-|-------------------|-------------------|-3----3-x---------|
end verse
chorus 4 times - Acoustic and Electric guitars
Bridge - Acoustic and Electric guitars
Am E F C Am E
E-5-5-5-5-5-5-5---------|------------8-8-8-8--x-|-5-5-5-5-5-5-5---------|
B-5-5-5-5-5-5-5----9----|-1010101010-8-8-8-8--x-|-5-5-5-5-5-5-5----9----|
G-5-5-5-5-5-5-5----9----|-1010101010-9-9-9-9--x-|-5-5-5-5-5-5-5----9----|
D-7-7-7-7-7-7-7----9----|-1010101010-10101010-x-|-7-7-7-7-7-7-7----9----|
A-7-7-7-7-7-7-7----7----|-8-8-8-8-8--10101010-x-|-7-7-7-7-7-7-7----7----|
E-5-5-5-5-5-5-5---------|------------8-8-8-8--x-|-5-5-5-5-5-5-5---------|
|-tri-|-tri-| |-tri-| |-tri-| |-tri-|-tri-|
F G Am E F C
E-1-1-1-1-x-3-3-3-3-x-|-5-5-5-5-5-5-5---------|------------8-8-8-8--x-|
B-1-1-1-1-x-3-3-3-3-x-|-5-5-5-5-5-5-5----9----|-1010101010-8-8-8-8--x-|
G-2-2-2-2-x-4-4-4-4-x-|-5-5-5-5-5-5-5----9----|-1010101010-9-9-9-9--x-|
D-3-3-3-3-x-5-5-5-5-x-|-7-7-7-7-7-7-7----9----|-1010101010-10101010-x-|
A-3-3-3-3-x-5-5-5-5-x-|-7-7-7-7-7-7-7----7----|-8-8-8-8-8--10101010-x-|
E-1-1-1-1-x-3-3-3-3-x-|-5-5-5-5-5-5-5---------|------------8-8-8-8--x-|
|-Tri-| |-Tri-| |-tri-|-tri-| |-tri-| |-tri-|
G .
E-3-3-x-x-x-3-3-x-x-x-|-3-3-3-3-3-3---------|
B-3-3-x-x-x-3-3-x-x-x-|-3-3-3-3-3-3----4----|
G-4-4-x-x-x-4-4-x-x-x-|-4-4-4-4-4-4----4----|
D-5-5-x-x-x-5-5-x-x-x-|-5-5-5-5-5-5----4----|
A-5-5-x-x-x-5-5-x-x-x-|-5-5-5-5-5-5----2----|
E-3-3-x-x-x-3-3-x-x-x-|-3-3-3-3-3-3---------|end bridge
|-Tri-| |-Tri-| |-Tri-|
Verse 1 time - Acoustic guitar
Chorus 4 times - Acoustic and electric guitar
bridge 1 time - Acoustic and electric guitar
Interlude - Acoustic and electric guitar
C G Fmaj7 C G Fmaj7 G
E-0----0-0-3----3-x-|-0----0-0-0----0-x-|-0----0-0-3----3-x-|-0----0-0-3----3-x|
B-1----1-1-3----3-x-|-1----1-1-1----1-x-|-1----1-1-3----3-x-|-1----1-1-3----3-x|
G-0----0-0-0----0-x-|-2----2-2-0----0-x-|-0----0-0-0----0-x-|-2----2-2-0----0-x|
D-2----2-2-0----0-x-|-3----3-3-2----2-x-|-2----2-2-0----0-x-|-3----3-3-0----0-x|
A-3----3-3-2----2-x-|----------3----3-x-|-3----3-3-2----2-x-|----------2----2-x|
E----------3----3-x-|-------------------|----------3----3-x-|----------3----3-x|
verse 1 time - Acoustic guitar
chorus 3 times - Acoustic and electric guitars
guitar solo - electric guitar
chorus played over the top by acoustic and electric guitars - 5 times
chorus chords:
C F G F C F G F C F
E--------|----------|-------------------|----------8--------|------------------|
B--------|----------|-5--------6--------|-6/8---------------|-8--------6-------|
G--------|--------5-|-------------------|-------------------|------------------|
D--------|----------|-------------------|-------------------|------------------|
A--------|----------|-------------------|-------------------|------------------|
E--------|----------|-------------------|-------------------|------------------|
|------rest-----|
G F C F G F C F
E-------------------|-------------------|----------8~~~~~~--|-8----------------|
B-5-----------------|-5--------6--------|-6/8-------------8-|----------8-------|
G----------5------5-|-------------------|-------------------|------------------|
D-------------------|-------------------|-------------------|------------------|
A-------------------|-------------------|-------------------|------------------|
E-------------------|-------------------|-------------------|------------------|
G F
E-8-----------------|
B-------------------|
G-------------------|
D-------------------|
A-------------------|
E-------------------| end guitar solo
intro/outro 1 time - acoustic guitar
electric guitar plays a staccato C chord (x3555x) for a quarter of a beat, once at beginning of outro
Green day rule




Ваше мнение



Капча