guitar intro

chorus
G|------------------------------------|
D|----------3-3-3-3-----------3-3-3-3-|
A|-3-3-3-3----------------------------|
E|-------------------3-3-3-3----------|

verse(1)
G|-------------------------|-------------------------|
D|---2-------3-3-2-0-------|---2---------------------|
A|-3-----2-----------3-2---|-3-----2-------------2---|
E|-----3---3-------------3-|-----3---3-1-1-0-1-3---3-|

verse(2)
G|-------------------------|---------------------------|
D|---2-------3-3-2-0-------|---2---3-2-0---------------|
A|-3-----2-----------3-2---|-3---3-----------2---3-2---|
E|-----3---3-------------3-|-------------3-3---3-----3-|

bridge
G|----------------------------------|
D|---------------2--3-3-3-3---------|
A|-0-0-0-0-0-0-0------------3-3-3-3-|
E|----------------------------------|

G|----------------------------------|
D|---------------2--3-3-3-3---------|
A|-0-0-0-0-0-0-0--------------------|
E|--------------------------3-3-3-3-|
G|----------------------------------|
D|---------------2--3-3-3-3---------|
A|-0-0-0-0-0-0-0------------3-3-3-3-|
E|----------------------------------|

G|-----------------------------------------------------|
D|-----------------------------------------------------|
A|-0-0-0-0-0-0-0---------------------------------------|
E|---------------1-3-3-x-x-x-3-3-x-x-x-3-3--3-3-3-3--3-|
guitar intro
chorus 4x
verse (1)1x
verse (2)1x
chorus 4x
bridge 1x
verse (1)1x
verse (2)1x
chorus 4x
bridge 1x
verse (1)2x
verse (2)1x
chorus 8x
guitar exit




Ваше мнение



Капча