MARIA by GREEN DAY
Album: International Superhits
Standard Tuning e a d g b e
Verse Pre-Chorus x4
e|-----------------------------------------------------|
b|-----------------------------------------------------|
g|--7--7--7------------------------------------9-------|
d|--7--7--7--7---X 3------------------7\-6-----9-------|
a|--5--5--5--7------------------------7\-6p-0--7-------|
e|-----------5------------------------5\-4p-0----------|
Chorus Bridge x6
e|-----------------------------------------------------|
b|----------------------------------10--12-10----------|
g|--7----------9------------------9--9--11-9-------9---|
d|--7--7-------9------------------9--7--9--7-------9---|
a|--5--7--x3---7------------------7----------------7---|
e|-----5-----------------------------------------------|
x 3 First Ending
e|-------------------------------------5-5-7-5-4-------|
b|--78-777-56-555-56-5-56---------7-7------------------|
g|-----------------------------------------------------|
d|-----------------------------------------------------|
a|-----------------------------------------------------|
e|-----------------------------------------------------|
2nd Ending
e|----5-5-7-5-4-5--------------------------------------|
b|-7-7-------------------------------------------------|
g|-----------------------------------------------------|
d|-----------------------------------------------------|
a|-----------------------------------------------------|
e|-----------------------------------------------------|
End
e|-----------------------------------------------------|
b|-----10-12-10----10-12-------------------------------|
g|--9--9--11-9--9--9--11---7--7--7---------------------|
d|--9--7--9--7--9--7--9----7--7--7--7------------------|
a|--7-----------7----------5--5--5--7------------------|
e|----------------------------------5------------------|
transcribed by dan beauchamp (own interpretation)
need more? stuck on a chord or two? e-mail [email protected]




Ваше мнение



Капча