LAST RIDE IN
green day
Tabbed by KoRny Freak

riff
|-------------------------------|
|-------------------------------|
|-------------------------------|
|-------------------------------|
|-2-----2--0------2-4--4-0-2----|
|----2--------------------------|

riff 2
|-----0------------------------0------------------------0----
|--------0------------------------0------------------------0-

|------------------------------------------------------------
|-2------------4-----------2------------4-----------2--------
|-2------------4-----------2------------4-----------2--------
|-0------------2-----------0------------2-----------0--------

-----------------------------2---------------|
-----------------------------2---------------|
-----------------------------2---------------|
-2---------2----4---------4------------------|
-2---------2----4---------4------------------|
-0---------0----2---------2------------------|




Ваше мнение



Капча