Artist : Green Day
Title : Knowledge
Album : 1,039/Smoothed Out Slappy Hours (originally from Slappy EP)
Released: 1990
Lyrics by: Jesse Michals of Operation Ivy
Tuning: standard
Tabbed by: Sigbjшrn Ottar Nydal ([email protected])
____________________________________________________________
Chords:
D C G
E|----------3--
B|--7---5---3--
G|--7---5---4--
D|--7---5---5--
A|--5---3---5--
E|----------3--
____________________________________________________________
Song progression:
Intro > Verse 1 > Chorus > Verse 2 > Chorus > Solo > Verse 3 >
Chorus > Chorus > End
____________________________________________________________
Intro:
D C G
D C G
Verse 1:
D
I know that things are getting tougher When you
C G
Can't get top off from the bottom of the barrel
D
Wide open road the road of my future
C G
now... It's looking fucking narrow
Chorus:
D
All I know is that I don't know
C G
All I know is that I don't know nothing
D
All I know is that I don't know
C G
All I know is that I don't know nothing
Verse 2:
D
We_____________________________________ get
C G
told to de-cide
D
Just like as if I'm
C G
not gonna change my mind
Solo:
b=bend one step
r=release
(D)
E|-------10-------10-------10-------10-|
B|----10-------10-------10-------10----|
G|-12b------12b------12b------12b------|
D|-------------------------------------|
A|-------------------------------------|
E|-------------------------------------|
E|-------10-------10-------10-------10-|
B|----10-------10-------10-------10----|
G|-12b------12b------12b------12b------|
D|-------------------------------------|
A|-------------------------------------|
E|-------------------------------------|

(C)
E|----------------------------------10-|
B|-------------------------------10----|
G|-12b-r-10-10-10-10-10-10-10-12b------|
D|-------------------------------------|
A|-------------------------------------|
E|-------------------------------------|
(G)
E|-------------13b---------13-10-------|
B|-13b---13-------------------------13-|
G|-------------------------------------|
D|-------------------------------------|
A|-------------------------------------|
E|-------------------------------------|
(D)
E|-10----------------------------------|
B|-------13-11-10----10----------------|
G|----------------12----12-10-10-12----|
D|-------------------------------------|
A|-------------------------------------|
E|-------------------------------------|
E|-------------------------------------|
B|-10----------------------------------|
G|-------12-10----10----------12----10-|
D|-------------------------------------|
A|-------------------------------------|
E|-------------------------------------|
(C)
E|-------10--------------------- - ------|
B|----10------------------------ - ------|
G|-12b------12b-r-10-10-10-10-12p10---10-|
D|------------------------------ - 12----|
A|------------------------------ - ------|
E|------------------------------ - ------|
(G)
E|-------------------------------------|
B|-------------------------------------|
G|-------------------------------------|
D|-12-11-10----------------12~---------|
A|----------12-11-10-------------------|
E|-------------------13----------------|
Verse 3:
(D)
Whatcha gonna do with yourself Boy you
(C) (G)
better make up your mind
(D)
Whatcha gonna do with yourself You're
(C) (G)
running out of time
End:
D
And that's fine


Ваше мнение



Капча