KING FOR A DAY
green day
Tabbed by KoRny Freak

verse
|---------------------------------|
|---------------------------------|
|-9-x-----9-x-----6-x-----6-x-----|
|-9-x-9-x-9-x-9-x-6-x-6-x-6-x-6-x-|
|-7-x-9-x-7-x-9-x-4-x-6-x-4-x-6-x-|
|-----7-x-----7-x-----4-x-----4-x-|

post verse
|---------------------------------|
|---------------------------------|
|---------------------------------|
|-7-7-7-7-7-7-7-7-9-9-9-9-9-9-9-9-|
|-7-7-7-7-7-7-7-7-9-9-9-9-9-9-9-9-|
|-5-5-5-5-5-5-5-5-7-7-7-7-7-7-7-7-|

chorus
|---------------------------------|
|---------------------------------|
|-9-x-----9-x-----6-6-6-6-6-6-6-6-|
|-9-x-9-x-9-x-9-x-6-6-6-6-6-6-6-6-|
|-7-x-9-x-7-x-9-x-4-4-4-4-4-4-4-4-|
|-----7-x-----7-x-----------------|




Ваше мнение



Капча