JINX
green day
Tabbed by KoRny Freak
intro
|-----------------------------|
|-----------------------------|
|-----5-5-5-5-7-7-7-7-7-7-7-7-|
|-5-5-5-5-5-5-7-7-7-7-7-7-7-7-|
|-5-5-3-3-3-3-5-5-5-5-5-5-5-5-|
|-3-3-------------------------|
verse
|-----------------------------------------------------
|-----------------------------------------------------
|-----------7-7-7-7-7-7-7-7-------5-5-5---------------
|-5-5-5-5-5-7-7-7-7-7-7-7-7-5-5-5-5-5-5-5-5-5-5-5-5-5-
|-5-5-5-5-5-5-5-5-5-5-5-5-5-5-5-5-3-3-3-5-5-5-5-5-5-5-
|-3-3-3-3-3-----------------3-3-3-------3-3-3-3-3-3-3-
-----------------------------------------------------
-----------------------------------------------------
-5-5-5-5-5-5-5-5-5-5-5-5-5---------------------------
-5-5-5-5-5-5-5-5-5-5-5-5-5-5-5-5-5-5-5-5-5-5-5-5-5-5-
-3-3-3-3-3-3-3-3-3-3-3-3-3-5-5-5-5-5-5-5-5-5-5-5-5-5-
---------------------------3-3-3-3-3-3-3-3-3-3-3-3-3-
-----------------------------------------------------
-----------------------------------------------------
-5-5-5-5-5-5-5-5-5-5-5-5-5-----7-7-7-9-9-9-9-9-9-9-9-
-5-5-5-5-5-5-5-5-5-5-5-5-5-5-5-7-7-7-9-9-9-9-9-9-9-9-
-3-3-3-3-3-3-3-3-3-3-3-3-3-5-5-5-5-5-7-7-7-7-7-7-7-7-
---------------------------3-3-----------------------

G-5-5-5-5-5-----------------7-7-7-7-7-7-7-7-7-7-7-7-7-|
D-5-5-5-5-5-3-3-3-3-3-3-3-3-7-7-7-7-7-7-7-7-7-7-7-7-7-|
A-3-3-3-3-3-3-3-3-3-3-3-3-3-5-5-5-5-5-5-5-5-5-5-5-5-5-|
E-----------1-1-1-1-1-1-1-1---------------------------|
chorus
|-----------------------------------------------------|
|-----------------------------------------------------|
|-----------5-5-5-5-5-5-5-7-7-7-7-7-7-7-7-7-7-7-7-7-7-|
|-5-5-5-5-5-5-5-5-5-5-5-5-7-7-7-7-7-7-7-7-7-7-7-7-7-7-|
|-5-5-5-5-5-3-3-3-3-3-3-3-5-5-5-5-5-5-5-5-5-5-5-5-5-5-|
|-3-3-3-3-3-------------------------------------------|




Ваше мнение



Капча