J.A.R (Jason Andrew Relva)
SONG TABBED BY DEXTER [email protected]
Intro(Bass) -> Played on The Eletric Guitar, this part sucks...play it on bass that it's perfect :)
G-------------------------------------------------------------
D--------11-------11-------11-------11-------11---------------
A----9-9------------------------9-9---------------------------
E-----------9-9-9----9-9-9-------------9-9-9------------------
Chords Used:
C#5 G#5 F#5 B5
E-----------------------------------------------------------
B-----------------------------------------------------------
G---6-----------------------------------------4-------------
D---6-------------6-------------4-------------4-------------
A---4-------------6-------------4-------------2-------------
E-----------------4-------------2---------------------------
(Bass Starting)
Then...
C#5 G#5 F#5(4x) G#5(5x)
F#5(4x) C#5(3x) G#5(3x)
F#5 G#5 F#5
My Friend Drove Off The Other Day
C#5 G#5 F#5
Now he's gone and all they say
F#5 G#5 F#5 C#5 G#5
Is you gotta live cause life goes on
F#5 G#5 F#5
Now I see i'm mortal too
C#5 G#5 F#5
I can't live my life like you
F#5 G#5 F#5 C#5 G#5
Gotta live it up while life goes on
F#5 C#5
And I Think Its All Right
C#5 G#5
That I do what I like
G#5 F#5 C#5
Cause that's the way I Wanna Live
C#5 G#5
It's how I Give
G#5 F#5
And I'm still giving
C#5 G#5 C#5 F#5
C#5 G#5 C#5 G#5
F#5 G#5 F#5
Now I Wonder about my friend
C#5 G#5 F#5
If he gave all he could give
F#5 G#5 F#5 C#5 G#5
Cause he lived his life like i lived mine
F#5 G#5 F#5
And if you could see inside my head
C#5 G#5 F#5
Then you'd start do Understand
F#5 G#5 F#5 C#5 G#5
The things I Value in my heart
F#5 C#5
And I Think Its All Right
C#5 G#5
That I do what I like
G#5 F#5 C#5
Cause that's the way I Wanna Live
C#5 G#5
It's how I Give
G#5 F#5
And I'm still giving
C#5 G#5 C#5 F#5
C#5 G#5 C#5 F#5
C#5 G#5 C#5 F#5
C#5 G#5 C#5
(PALM MUTED)
B5 F#5
You Know That...
C#5 G#5
I Know That...
B5 F#5 G#5
You are watching me
SOLO
E-----------------------------------------------------------
B------------------------------6-4-6-4----------------------
G--6-6-6-6-6-6--5-3-5-6--6-6-6---------6-6-6-6-6-6--5-3-5-6-
D-----------------------------------------------------------
A-----------------------------------------------------------
E-----------------------------------------------------------
E-------------------------------------------------------------------9-9-9-9-9-9---
B------------------------------6-4-6-4------------------------------9-9-9-9-9-9---
G--6-6-6-6-6-6--5-3-5-6--6-6-6---------6-6-6-6-6-6--5-3-5-6-----------------------
D---------------------------------------------------------------------------------
A---------------------------------------------------------------------------------
E---------------------------------------------------------------------------------
F#5 C#5
And I Think Its All Right
C#5 G#5
That I do what I like
G#5 F#5 C#5
Cause that's the way I Wanna Live
C#5 G#5
It's how I Give
G#5 F#5
And I'm still giving
(Again the bass part)
Gotta make a plan
Gotta do what's right
Can't run around in circles if you wanna build a life
But i don't wanna make a plan for a Day far Away
While i'm young and while i'm able
All I wanna do is...
*******************************SONG TABBED BY DEXTER(GUILHERME CERQUEIRA)**************
Suggestions, Corrections, Doubts, [email protected]




Ваше мнение



Капча