Group: Green Day
Album: Warning
Song : jackass
By: Andrew Sorensen [email protected]
intro
G|-5-5-4-4-2-2-2-2-2-2--5-5-4-4-2-2-2-2-2-2--5-5-4-4-2-2-2-2-2-2-7-7-7-7-7-7-7-7-|
D|-5-5-4-4-2-2-2-2-2-2--5-5-4-4-2-2-2-2-2-2--5-5-4-4-2-2-2-2-2-2-7-7-7-7-7-7-7-7-|
A|-3-3-2-2-0-0-0-0-0-0--3-3-2-2-0-0-0-0-0-0--3-3-2-2-0-0-0-0-0-0-5-5-5-5-5-5-5-5-|
E|-------------------------------------------------------------------------------|
pre verse/bridge 1
G|---------------3-3-|
D|-5-5-5-5-5-3-3-3-3-|
A|-5-5-5-5-5-3-3-1-1-|
E|-3-3-3-3-3-1-1-----|
verse
G|-----------------------------------7-7-7-7-7-7-7-7-5-5-4-4-2-2-2-2-2-2-
D|-5-5-5-5-5-5-5-5-5-5-5-5-5-5-5-5---7-7-7-7-7-7-7-7-5-5-4-4-2-2-2-2-2-2-
A|-5-5-5-5-5-5-5-5-5-5-5-5-5-5-5-5---5-5-5-5-5-5-5-5-3-3-2-2-0-0-0-0-0-0-
E|-3-3-3-3-3-3-3-3-3-3-3-3-3-3-3-3---------------------------------------
-5-5-4-4-2-2-2-2-2-2--5-5-4-4-2-2-2-2-2-2--7-7-7-7-7-7-7-7-|
-5-5-4-4-2-2-2-2-2-2--5-5-4-4-2-2-2-2-2-2--7-7-7-7-7-7-7-7-|
-3-3-2-2-0-0-0-0-0-0--3-3-2-2-0-0-0-0-0-0--5-5-5-5-5-5-5-5-|
-----------------------------------------------------------|
chorus
G|---------------------------------5-5-5-5-5-5-5-5-----------------
D|-2-2-2-2-2-2-2-2-9-9-9-9-9-9-9-9-5-5-5-5-5-5-5-5-5-5-5-5-4-4-4-4-
A|-2-2-2-2-2-2-2-2-9-9-9-9-9-9-9-9-3-3-3-3-3-3-3-3-5-5-5-5-4-4-4-4-
E|-0-0-0-0-0-0-0-0-7-7-7-7-7-7-7-7-----------------3-3-3-3-2-2-2-2-
---------------------------------5-5-5-5-5-5-5-5-7-7-7-7-7-7-7-7-|
-2-2-2-2-2-2-2-2-9-9-9-9-9-9-9-9-5-5-5-5-5-5-5-5-7-7-7-7-7-7-7-7-|
-2-2-2-2-2-2-2-2-9-9-9-9-9-9-9-9-3-3-3-3-3-3-3-3-5-5-5-5-5-5-5-5-|
-0-0-0-0-0-0-0-0-7-7-7-7-7-7-7-7---------------------------------|
bridge 2 outro
G|-7-7-7-7-5-5-12-12-| G|-5----4----2----2------|
D|-7-7-7-7-5-5-12-12-| D|-5----4----2----2----2-|
A|-5-5-5-5-3-3-10-10-| A|-3----2----0----0----2-|
E|-------------------| E|---------------------0-|




Ваше мнение



Капча