From: [email protected] (Chad B Pimentel)
Date: Mon, 25 Sep 1995 15:20:16 -0400 (EDT)

J.A.R. (Jason Andrew Relva)
Green Day
Angus Soundtrack

Green Day strikes again with another 3 chord-wonder of a song. When
Playing along with the cd, it sounds better down a half-step, but it
Visually appears like they're playing it where the tab is. Whatever,
Anyways, good luck.

Intro/Verses

D A G A G D D A G
E-----------3------5-----3-----x-----------
B-----------3------5-----3-----7-----------
G----7------4------6-----4-----7---7-------
D----7---7--5------7-----5-----7---7---7--5
A----5---7--5------7-----5-----5---5---7--5
E--------5--3------5-----3-----x-------5--3

D A G A G D D A G
Saw my friend the other day, now he's lost and gone away...


Then they switch to a quick-hit strumming pattern for this part

G D
Nothing feels alright
A
But I'm doing alright
G D
Cause that's the way I wanna live
A
That's all I'll give
G D G D G D G D A G
Unintelligible last line

Bridge

G
You know that
D
I know that
G A D A G...
You're watching me...

Solo
E------------------------------7-5-7-5-------------------
B--8--8--8-8-8-8-7-5-7-8-8-8-8---------8-8-8-8-7-5-5^----
G-------------------------------------------------------7

That's it, the whole song falls into one of those patterns. Just listen
To the song, and you'll figure out what goes where.

UPenn- 23 straight and counting




Ваше мнение



Капча