Mxtabs [http://www.mxtabs.net]
Artist:Green Day
Song:I Fought the Law
Album:I Fought the Law
Tabbed by nicK
[email protected]

intro x2
Guitar 1
E|6/8-8-8--6/8-8-8--6/8-8-8--6/8-8-8--6/8-8-8--6/8-8-8-8-6-5------------------------|
B|-----------------------------------------------------------4----------------------|
G|----------------------------------------------------------------------------------|
D|----------------------------------------------------------------------------------|
A|----------------------------------------------------------------------------------|
E|----------------------------------------------------------------------------------|

Guitar 2:F F Bb C x2

Verse:F F Bb F x6
Prechorus
Guitar 1
E|8-8-8-8---------8-8-8-8-------------|
B|--------6-6-6-6---------6-6-6-6--6~-|
G|------------------------------------|

Guitar 2:Bb F Bb F(merge the last F with the first F of the chorus)
Chorus:F F Bb F/F F C Bb A F

Solo x3 repeat as many as necessary
E|---------------------|--------17|------------------------------------|------------|
B|---------------------|--15-18---|------------------------------------|------------|
G|------------14-14/15-|17--------|/17-17-17--15/17-17-17--15/17-17-17-|17-15-14----|
D|------15/17----------|----------|------------------------------------|---------15-|
A|15/17----------------|----------|------------------------------------|------------|
E|---------------------|----------|------------------------------------|------------|

Verse(same as before except on the first time there is no Bb or third F)x6
Prechours
Chorus
Intro
Chorus(no guitar except last time)x7 C Bb A Fx1




Ваше мнение



Капча