HAUSHINKA
green day
Tabbed by KoRny Freak
intro
|---------|
|---------|
|-5-7:----|
|-5-7:----|
|-3-5:----|
|---------|
verse
|-----------------------|
|-7-----8----10-----8---|
|---7-----7-----7-----7-|
|-----------------------|
|-----------------------|
|-----------------------|
chorus
|-------------------------------------------------------------|
|-------------------------------------------------------------|
|-7-7-7-7-7-7-7-7-5-5-5-5-5-5-5-5-----------------------------|
|-7-7-7-7-7-7-7-7-5-5-5-5-5-5-5-5-5-5-5-5-5-5-5-5-3-3-3-3-5-5-|
|-5-5-5-5-5-5-5-5-3-3-3-3-3-3-3-3-5-5-5-5-5-5-5-5-3-3-3-3-5-5-|
|---------------------------------3-3-3-3-3-3-3-3-1-1-1-1-3-3-|
bridge
|-------------------------------------------------------------|
|-------------------------------------------------------------|
|-------------------------------------------------------------|
|-9-9-9-9-9-9-9-7-7-7-7-7-7-7-4/5-5-5-5-5-5-5-4/5-5-5-5-5-5-5-|
|-9-9-9-9-9-9-9-7-7-7-7-7-7-7-4/5-5-5-5-5-5-5-4/5-5-5-5-5-5-5-|
|-7-7-7-7-7-7-7-5-5-5-5-5-5-5-2/3-3-3-3-3-3-3-2/3-3-3-3-3-3-3-|
pm_______________________________|
|-------------------------------------------------------|
|-------------------------------------------------------|
|-------------------------------------------------------|
|-5-5-5-5-5-5-5-5-5-5-5-5-5-5-5-5-5-5-5-5-5-5-5-5-5-5-5-|
|-5-5-5-5-5-5-5-5-5-5-5-5-5-5-5-5-5-5-5-5-5-5-5-5-5-5-5-|
|-3-3-3-3-3-3-3-3-3-3-3-3-3-3-3-3-3-3-3-3-3-3-3-3-3-3-3-|
post bridge
|-----------------------------|
|-----------------------------|
|-------7-7-7-----------------|
|-7-7-7-7-7-7-5-5-5-5-5-7-7-7-|
|-7-7-7-5-5-5-5-5-5-5-5-7-7-7-|
|-5-5-5-------3-3-3-3-3-5-5-5-|




Ваше мнение



Капча