Green Day - Ha Ha You're Dead
Tabbed By: Alex Harbin
EMail: [email protected]
Intro/Verse
(palm muted)
|--------------------------------------------------------------------|
|--------------------------------------------------------------------|
|--------------------------------------------------------------------|
|-5—-5-5-5-5-5-5-5-5-------------------------------------------------|
|-3—-3-3-3-3-3-3-3-3---5-5-5-5-5-5-5—-7-7-7-7-7-7-7-7-7-7-7-7-7-7-7--|
|----------------------3-3-3-3-3-3-3—-5-5-5-5-5-5-5-5-5-5-5-5-5-5-5--|
Pre-Chorus
|-------------------------------------------------------------|
|-------------------------------------------------------------|
|-5-/-7-------------------------------------------------------|
|-5-/-7---5-5—-5—-5—-5—-5—-5--5—-5--5—-5—-5—-5—-5—-5—-5—-5----|
|-3-/-5---5-5—-5—-5—-5—-5--5—-5—-5—-5—-5—-5—-5—-5—-5—-5—-5----|
|---------3-3--3--3--3--3--3--3--3--3--3--3--3--3--3--3--3----|
Chorus
|-------------------------------------------------------------------------------|
|-------------------------------------------------------------------------------|
|-5-5-5-5-5-5-5-5-5-------------------------------------------------------------|
|-5-5-5-5-5-5-5-5-5---5-5-5-5-5-5-5-5-5---7-7-7-7-7-7-7-7-7-7---5-5-5-5-5-5-5-5-|
|-3-3-3-3-3-3-3-3-3---5-5-5-5-5-5-5-5-5—--7-7-7-7-7-7-7-7-7-7—--5-5-5-5-5-5-5-5-|
|---------------------3-3-3-3-3-3-3-3-3—--5-5-5-5-5-5-5-5-5-5—--3-3-3-3-3-3-3-3-|
|--------------------|
|--------------------|
|--------------------|
|-5---5-5-5-5---5----|
|-5---3-3-3-3---5----|
|-3-------------3----|
Solo
|--------------------------------------------------------------------------------------|
|--------------------------------------------------------------------------------------|
|-9—--9---9---9---10----10----10----10----9---9---9---9----12----12----12----12--------|
|--10—-10—-10--10---11----11----11----11---10—-10--10--10----14----14----14----14------|
|--------------------------------------------------------------------------------------|
|--------------------------------------------------------------------------------------|
|------------------------------------------------------------------|
|------------------------------------------------------------------|
|-9---9---9---9----10----10----10----9---9----7---7----------------|
|--10—-10—-10--10----11----11----11---10—-10----8---8-----9--------|
|------------------------------------------------------------------|
|------------------------------------------------------------------|




Ваше мнение



Капча