Artist: Green Day:
Song:Ha, ha You’re Dead.
Album:Shenanigans.
Tabbed by Jonathan Smith (RUBSY).
Brand new Green Day song, and what a song! This is taken off their new B-Side ablum out in July. I was looking forward to hearing D.U.I but they’re only putting it on the Jap’s verson. If anyones got it let me know cause I heard it was written during NIMROD but never got recorded.
It’s good to see that Green Day have started to write heavier material with songs like this, Maria and Scumbag. The NEW Studio album, still untitled, is due out in late 2002 or 2003 says Tre Cool. They’re ment to start recording it in August after their UK tour.
Anyway enjoy this, I’m not to sure on the last chord in the chorus or the end of the Guitar Solo, but the rest is okay.
Intro:(Palm mute)
C5 G5 A5
E|-------------------------------------------------------------------------|
B|-------------------------------------------------------------------------|
G|-5-5-5-5--5-5-5-5--------------------------------------------------------|
D|-5-5-5-5--5-5-5-5-5-5-5-5--5-5-5-5--7-7-7-7--7-7-7-7--7-7-7-7--7-7-7-7---|
A|-3-3-3-3--3-3-3-3-5-5-5-5--5-5-5-5--7-7-7-7--7-7-7-7--7-7-7-7--7-7-7-7---|X2
E|------------------3-3-3-3--3-3-3-3--5-5-5-5--5-5-5-5--5-5-5-5--5-5-5-5---|
Verse:1 (Palm mute)
C5 G5 A5
How do you get your sleep at night?
C5 G5 A5
How did you get your noose so tight?
C5 G5 A5 F5
Like chewing on tinfoil, it's so much fun...
C5 G5 A5
Gonna be dead before your gone
Pre-Chorus
B5 C5 G5
Cause look how things have gotten,
B5 C5 G5
And I'll be happy so I won't pretend.
B5 C5 G5
And I'll be cheering that you're going down,
B5 C5 G5
And I'll be laughing, I'll be laughing!
Verse:2 (Same chords as verse 1)
How many feelings can you steal?
Gotta be part of your appeal
I can see through you, cause you're wearing thin...
Like chewing on tinfoil once again
//PRE-CHORUS//
Chorus:1
C5 F5
Ha ha you're dead. And I'm so happy
C5 G5
In loving memory. Of your demise...
Bridge:1
A5 G5 F5
When your ship is going down, I'll go out and paint the town
C5
Ha ha you're dead
G5
Ha ha you're dead
C5
Ha ha you're dead
Guitar Solo:
E|-----------------------------------------------------------------------------
B|-5---5---5---5---6---6---6---6---5---5---5---5---8---8---8---8---10---10-----
G|---5---5---5---5---5---5---5---5---5---5---5---5---7---7---7---7----9----9---
D|-----------------------------------------------------------------------------
A|-----------------------------------------------------------------------------
E|-----------------------------------------------------------------------------
-----------------------------------------------------|
-10---8---6---6---6--?---?---6---6-------------------|
----9---7---5---5------?---?---5---5-5~--5-5-5-5-----|
-----------------------------------------5-5-5-5-----|
-----------------------------------------3-3-3-3-----|
-----------------------------------------------------|
//CHORUS:1// //BRIDGE:1//
Chorus:2
C5 F5
Ha ha you're dead. The joke is over.
C5 G5
You were an asshole. And now you're gone
Bridge:2
A5 G5 F5
As your ship is going down, I'll stand by and watch you drown
C5
Ha ha you're dead
G5
Ha ha you're dead
C5
Ha ha you're dead
Outro
C5 G5
Ha ha you're dead you're gonna be dead,
A5 G5 F5
Just remember what I said!
C5
Ha ha you're dead
G5
Ha ha you're dead
C5 G5 C5
Ha ha you're dead!!!




Ваше мнение



Капча