Artist Green Day
Song Ha Ha You're Dead
Album Shenanigians/Every Dog Will Have Its Day
year 2002
Tuning Standared Like Most newer Green Day Songs
Tabbed By B. Durr
This is one of my first tabs so go easy on me
Intro/Verse
c5 g5 a5
------------------------------------------------------------
------------------------------------------------------------
-5-5-5-5-5-5-5-5--------------------------------------------
-5-5-5-5-5-5-5-5--5-5-5-5-5-5-5-5-7-7-7-7-7-7-7-7-7-7-7-7-7-
-3-3-3-3-3-3-3-3--5-5-5-5-5-5-5-5-7-7-7-7-7-7-7-7-7-7-7-7-7-
------------------3-3-3-3-3-3-3-3-5-5-5-5-5-5-5-5-5-5-5-5-5-
Pm_________________________________________________________
Chorus 1st time ( No Ha Ha You're Dead)x4
f5 c5 g5
------------------------------------------
------------------------------------------
----5-5-----------------------------------
-3--5-5--5-5-5-5-5-5-5-5------------------
-3--3-3--5-5-5-5-5-5-5-5------------------
-1-------3-3-3-3-3-3-3-3------------------
Chorus With Ha's Ha's
Do Chorus 1 4x
then Do
c5 f5 c5
----------------------------------------------------
----------------------------------------------------
-5-5-5-5-5-5-5-5-----------------5-5-5-5-5-5-5-5----
-5-5-5-5-5-5-5-5--3-3-3-3-3-3-3--5-5-5-5-5-5-5-5----
-3-3-3-3-3-3-3-3--3-3-3-3-3-3-3--3-3-3-3-3-3-3-3----
------------------1-1-1-1-1-1-1---------------------
g5 a5 g5 f5
----------------------------------------------------------
----------------------------------------------------------
----------------------------------------------------------
-5-5-5-5-5-5-5-5--7-7-7-7-7-7-7-7---5--3--3-3-3-3-3-3-3-3-
-5-5-5-5-5-5-5-5--7-7-7-7-7-7-7-7---5--3--3-3-3-3-3-3-3-3-
-3-3-3-3-3-3-3-3--5-5-5-5-5-5-5-5---3--1--1-1-1-1-1-1-1-1-
c5 g5 c5
------------------------------------------------------------
------------------------------------------------------------
-5-5-5-5-5-5-5-5--------------------5-5-5-5-5-5-5-5---------
-5-5-5-5-5-5-5-5--5-5-5-5-5-5-5-5---5-5-5-5-5-5-5-5---------
-3-3-3-3-3-3-3-3--5-5-5-5-5-5-5-5---3-3-3-3-3-3-3-3---------
------------------3-3-3-3-3-3-3-3---------------------------
g5
------------------
------------------
------------------
-5-5-5-5-5-5-5-5--
-5-5-5-5-5-5-5-5--
-3-3-3-3-3-3-3-3--

Solo(Over The Ha Ha You're Dead Chords)
------------------------------------------------------------
5---5---5---5---6---6---6---6---5---5---5---5---8---8---8---
--5---5---5---5---5---5---5---5---5---5-------5---5----5--5-
------------------------------------------------------------
------------------------------------------------------------
------------------------------------------------------------
Solo Continued

------------------------------------------------------------
-5---5---5---5---6---6---6---6--5---5---5---5--3---3--3--3--
---5---5---5---5--5---5---5---5--5---5---5---5--4---4--4--4-
------------------------------------------------------------
------------------------------------------------------------
------------------------------------------------------------
That's It

Order
intro x2
Verse 1 x4
Chorus(With Out Ha Ha You're Dead Chords)x4
Verse 2 x4
Chorus (with ha ha youre dead part)
solo
chorus
solo & chorus




Ваше мнение



Капча