VERSE RIFF
E|-----------------|-----------------|-----------------|-----------------|
B|-----------------|-----------------|-----------------|-----------------|
G|-----------------|-------7-7-------|-----------------|-----------------|
D|-7-----2-2-----7-|-7-----7-7-----7-|-7-----2-2-----7-|-7-----2-2-------|
A|-7---X-2-2---X-7-|-7---X-5-5---X-7-|-7---X-2-2---X-7-|-7---X-2-2-------|
E|-5---X-0-0---X-5-|-5---X-------X-5-|-5---X-0-0---X-5-|-5---X-0-0-------|

E|-----------------|-----------------|-----------------|-----------------|
B|-----------------|-----------------|-----------------|-----------------|
G|-----------------|-------7-7-------|-----------------|-----------------|
D|-7-----2-2-----7-|-7-----7-7-----7-|-7-----2-2-----7-|-7-----7-7-------|
A|-7---X-2-2---X-7-|-7---X-5-5---X-7-|-7---X-2-2---X-7-|-7---X-7-7-------|
E|-5---X-0-0---X-5-|-5---X-------X-5-|-5---X-0-0---X-5-|-5---X-5-5-------|

CHORUS RIFF
E|-----------------|-----------------|-----------------|-----------------|
B|-----------------|-----------------|-----------------|-----------------|
G|-------7-7-------|-----------------|---------7-7-7-7-|---------9-9-9-9-|
D|-4-----7-7-----7-|-7-----2-2-----4-|-4-4-4-4-7-7-7-7-|-7-7-7-7-9-9-9-9-|
A|-4-----5-5-----7-|-7-----2-2-----4-|-4-4-4-4-5-5-5-5-|-7-7-7-7-7-7-7-7-|
E|-2---X-------X-5-|-5---X-0-0---X-2-|-2-2-2-2---------|-5-5-5-5---------|

SOLO
E|-----------------|-----------------|-----------------|-----------------|
B|-5---5-5-5---5-5-|-7-----5-5---5-5-|-5---5-5-5---5-5-|-3-----5-5-------|
G|-----------------|-----------------|-----------------|-----------------|
D|-----------------|-----------------|-----------------|-----------------|
A|-----------------|-----------------|-----------------|-----------------|
E|-----------------|-----------------|-----------------|-----------------|

E|-----------------|-----------------|-----------------|-----------------|
B|-0-2-2-2-2---0-2-|-2-3-3-3-3---2-/-|-5---7---5-3-0---|-----------------|
G|-----------------|-----------------|-----------------|-2---------------|
D|-----------------|-----------------|-----------------|-----------------|
A|-----------------|-----------------|-----------------|-----------------|
E|-----------------|-----------------|-----------------|-----------------|

E|-2-----3-3-----2-|-2-----0-0-----2-|-2-2-2-2-3-3-3-3-|-2-2-2-2-5-5-5\--|
B|-2-----3-3-----2-|-2-----0-0-----2-|-2-2-2-2-3-3-3-3-|-2-2-2-2-5-5-5\--|
G|-----------------|-----------------|-----------------|-----------------|
D|-----------------|-----------------|-----------------|-----------------|
A|-----------------|-----------------|-----------------|-----------------|
E|-----------------|-----------------|-----------------|-----------------|

E|-2-----3-3-----2-|-2-----0-0-----2-|-2-2-2-2-3-3-3-3-|-5-5-5-5-5-5-5\--|
B|-2-----3-3-----2-|-2-----0-0-----2-|-2-2-2-2-3-3-3-3-|-5-5-5-5-5-5-5\--|
G|-----------------|-----------------|-----------------|-bend up^--------|
D|-----------------|-----------------|-----------------|-----------------|
A|-----------------|-----------------|-----------------|-----------------|
E|-----------------|-----------------|-----------------|-----------------|

Verse 1 w/ VERSE RIFF
I was a young boy that had big plans,
Now I'm just another Shitty old man.
I don't have fun and I hate everything,
The world owes me so fuck you.

Verse 2 w/ VERSE RIFF
Glory days don't mean shit to me,
I drank a six-pack of apathy.
Life's a bitch and so am I,
The world owes me so fuck you.

Chorus w/ CHORUS RIFF
Wasted youth and a fistfull of ideals,
I had a young and optimistic point of view.
Wasted youth and a fistfull of ideals,
I had a young and optimistic point of view.

Verse 3 w/ VERSE RIFF
I've decomposed yet my guts getting fat,
Oh my god I'm turning out like my dad.
I'm always rude, I got a bad attitude,
The world owes me so fuck you.

Verse 4 w/ VERSE RIFF
The wife's a nag, and the kid's fucking up,
I don't have sex 'cause I can't get it up.
I'm just a grouch, sitting on the couch,
The world owes me so fuck you.

Chorus

Solo w/ SOLO

Verse 1

Verse 2

The world owes me so fuck you.
The world owes me so fuck you.

Thanx, Tom ([email protected])


Ваше мнение



Капча