green day
green day
39/smooth
standard tuning

opening:
--------------------------|----------------------------|
-------3------------------|----------------------------|
-4-----2--4---------------|-----------------------4----|
-4--2--0--4---------------|-6-6-6-6-6---2-2-2-2-2-4----|
-2--2-----2---hold note---|-6-6-6-6-6-0-2-2-2-2-2-2etc-|
----0-------bass comes in-|-4-4-4-4-4-0-0-0-0-0-0------|
{------------x3--------------}

verse:
---------2-2-2-2-------------------------------------------0
---------3-3-3-3-----------------------------------------0--
-1-1-1-1-2-2-2-2-6-6-6-6-4-4-4-4-4---------2-2-2-----1/2----
-2-2-2-2-0-0-0-0-6-6-6-6-4-4-4-4-4-4-4-4-4-2-2-2-2-2--------
-2-2-2-2---------4-4-4-4-2-2-2-2-2-4-4-4-4-0-0-0-2-2--------
-0-0-0-0---------------------------2-2-2-2-------0-0--x2----

2nd part of opening 4x

verse 3x

2nd part of oopening 4x

verse 2x

solo:
|------------------------------------------------------
|-12-12-12-12-12/14-12-10-9-9-9/10-9-7-5---------------
|-x--x--x--x--x-/---x--x--x-x-x----x-x-x-4-4-4-4-4-4-4-
|-9--9--9--9--9-/11-9--7--6-6-6/7--6-4-2-4-4-4-4-4-4-4-
|----------------------------------------2-2-2-2-2-2-2-
|------------------------------------------------------

-----------------------------------0-----------|
---------------------------------0---0---------|
-----------2-2-2-2-2-2-2-1-1-1/2-------21-1-1-|
-4-4-4-4-4-2-2-2-2-2-2-2-2-2---------------2-2-|
-4-4-4-4-4-0-0-0-0-0-0-0-2-2---------------2-2-|
-2-2-2-2-2---------------0-0---------------0-0-|

verse 2x

2nd part of opening 4x

|---------2-2-2-2-----------------0---0-------0--------0---
|---------3-3-3-3-----------------0-0---0---0---0----0---0-
|-1-1-1-1-2-2-2-2-6-6-6-6-4-4-4-4-2-------2-------2--------
|-2-2-2-2-0-0-0-0-6-6-6-6-4-4-4-4-2------------------------
|-2-2-2-2---------4-4-4-4-2-2-2-2-0------------------------
|-0-0-0-0--------------------------------------------------




Ваше мнение



Капча