Another turning point..........
e-------------------------------------------
b----------3------3------3-------3----------
g---------0-0-0--0-0-0--0-0-0---2-2-2------- x 4
d------------0------0------2---0---0--------
a----------------------3--------------------
e--------3------3---------------------------
So make the best..........
e----------0---------------------------------
b-----------0-0----3-------1-------3---------
g---------0--0----2-2-2---0-0-0---0-0-0------ x 2
d--------2-------0---0-------2-------0-------
a------------------------3-------------------
e--------------------------------3-----------
It's somethin unpredictable........
e----------0---------------0---------------0-------------
b-----------0-0----3--------0-0----3--------0-0----3-----
g---------0--0----0-0-0---0--0----0-0-0---0--0----2-2-2--
d--------2-----------0---2-----------0---2-------0---0---
a--------------------------------------------------------
e----------------3---------------3-----------------------

Now he starts strumming these chords for the rest of the song:

G C9 D Em C

3 3 2 0 0
3 3 3 0 1
0 0 2 0 0
0 2 0 2 2
2 3 0 2 3
3 x x 0 0

G C9 D
So take the photographs and still frames in your mind

G C9 D
Hang it on a shelf in good health and good time

Em D C G
Tatoos of memories and dead skin on trial

Em D C G
Through what нts worth it was worth all the while

Em G
Well its somethin unpredictable,

Em G
But in the end its right

Em D G
Well I hope you had the time of your life.

Repeat G C9 D Cadence Then pick the chorus, sing it again. end with intro.

E-mail me with any comments, [email protected]




Ваше мнение



Капча