Intro
G
e---------------------|
b---------------------|
g-----0-------0-------|
d-------0-------0-----|
a---------------------|
e-3-3-----3-3---------|
F***

G Csus2 D
e-------------|--------------|-------------|-------------|
b-----3-------|-----3--------|-----3-------|-----3-------|
g-------0---0-|-----0--0---0-|-0---0-0---0-|-2-0-2-2---0-|
d-0-0-----0---|----------0---|-------------|-0-------0---|
a-------------|--------------|-3-3-----3---|-------------|
e-3-3-----3---|-3-3----------|-------------|-------------|
Verse
Note:i am just putting the chord down once. Just do the same chord until the next one
appears. The strum pattern is down down up down up all the way through except outro which is strummed very
slowly and interlude which is strummed fast and hard.

G Csus2 D
e-3------------------------3----------------2--|
b-3------------------------3----------------3--|
g-0------------------------0----------------2--|
d-0------------------------2-------------------|
a-2------------------------3-------------------|
e-3--------------------------------------------|
Another turning point, a fork stuck in the road
G Csus2 D
e-3-----------------------------3------------------2--|
b-3-----------------------------3------------------3--|
g-0-----------------------------0------------------2--|
d-0-----------------------------2---------------------|
a-2-----------------------------3---------------------|
e-3---------------------------------------------------|
Time grabs you by the wrist, directs you where to go
Em D Csus2 G
e-----------2--------------3-------------------3-|
b-----------3--------------3-------------------3-|
g-----------2--------------0-------------------0-|
d-2------------------------2-------------------0-|
a-2------------------------3-------------------2-|
e-0--------------------------------------------3-|
So make the best of this test and don't ask why

Em D Csus2 G
e-----------2--------------3-----------------3-|
b-----------3--------------3-----------------3-|
g-----------2--------------0-----------------0-|
d-2------------------------2-----------------0-|
a-2------------------------3-----------------2-|
e-0------------------------------------------3-|
Its not a question but a lesson learned in time
Chorus
Em G Em G
e---------------------3---------------------------3--|
b---------------------3---------------------------3--|
g---------------------0---------------------------0--|
d-2-------------------0-----------2---------------0--|
a-2-------------------2-----------2---------------2--|
e-0-------------------3-----------0---------------3--|
Its something unpredictable, but in the end is right
Em D
e---------------------2-|
b---------------------3-|
g---------------------2-|
d-2---------------------|
a-2---------------------|
e-0---------------------|
I hope you had the time of your life
Interlude 1

G Csus2 D
e-3------------------------3----------------2--|
b-3------------------------3----------------3--|
g-0------------------------0----------------2--|
d-0------------------------2-------------------|
a-2------------------------3-------------------|
e-3--------------------------------------------|
G Csus2 D
e-3------------------------3----------------2--|
b-3------------------------3----------------3--|
g-0------------------------0----------------2--|
d-0------------------------2-------------------|
a-2------------------------3-------------------|
e-3--------------------------------------------|
Verse
G Csus2 D
e-3--------------------------------------3---------2--|
b-3--------------------------------------3---------3--|
g-0--------------------------------------0---------2--|
d-0--------------------------------------2------------|
a-2--------------------------------------3------------|
e-3---------------------------------------------------|
So take the photographs and steel frames in your mind
G Csus2 D
e-3------------------------3----------------2--|
b-3------------------------3----------------3--|
g-0------------------------0----------------2--|
d-0------------------------2-------------------|
a-2------------------------3-------------------|
e-3--------------------------------------------|
hang it on a shelf in good health and good time
Em D Csus2 G
e-----------2--------------3-------------------3-|
b-----------3--------------3-------------------3-|
g-----------2--------------0-------------------0-|
d-2------------------------2-------------------0-|
a-2------------------------3-------------------2-|
e-0--------------------------------------------3-|
Tatoos of memories, and dead skin on trial
Em D Csus2 G
e--------------2--------------3------------3-|
b--------------3--------------3------------3-|
g--------------2--------------0------------0-|
d-2---------------------------2------------0-|
a-2---------------------------3------------2-|
e-0----------------------------------------3-|
for what its worth, it was worth all the while
Chorus
Em G Em G
e---------------------3---------------------------3--|
b---------------------3---------------------------3--|
g---------------------0---------------------------0--|
d-2-------------------0-----------2---------------0--|
a-2-------------------2-----------2---------------2--|
e-0-------------------3-----------0---------------3--|
Its something unpredictable, but in the end is right
Em D
e---------------------2-|
b---------------------3-|
g---------------------2-|
d-2---------------------|
a-2---------------------|
e-0---------------------|
I hope you had the time of your life
Interlude 2
G Csus2 D
e-3------------------------3----------------2--|
b-3------------------------3----------------3--|
g-0------------------------0----------------2--|
d-0------------------------2-------------------|
a-2------------------------3-------------------|
e-3--------------------------------------------|
G Csus2 D
e-3------------------------3----------------2--|
b-3------------------------3----------------3--|
g-0------------------------0----------------2--|
d-0------------------------2-------------------|
a-2------------------------3-------------------|
e-3--------------------------------------------|
G Csus2 D
e-3------------------------3----------------2--|
b-3------------------------3----------------3--|
g-0------------------------0----------------2--|
d-0------------------------2-------------------|
a-2------------------------3-------------------|
e-3--------------------------------------------|
G Csus2 D
e-3------------------------3----------------2--|
b-3------------------------3----------------3--|
g-0------------------------0----------------2--|
d-0------------------------2-------------------|
a-2------------------------3-------------------|
e-3--------------------------------------------|
Em G Em G
e---------------------3---------------------------3--|
b---------------------3---------------------------3--|
g---------------------0---------------------------0--|
d-2-------------------0-----------2---------------0--|
a-2-------------------2-----------2---------------2--|
e-0-------------------3-----------0---------------3--|
Em G Em G
e---------------------3---------------------------3--|
b---------------------3---------------------------3--|
g---------------------0---------------------------0--|
d-2-------------------0-----------2---------------0--|
a-2-------------------2-----------2---------------2--|
e-0-------------------3-----------0---------------3--|
Chorus
Em G Em G
e---------------------3---------------------------3--|
b---------------------3---------------------------3--|
g---------------------0---------------------------0--|
d-2-------------------0-----------2---------------0--|
a-2-------------------2-----------2---------------2--|
e-0-------------------3-----------0---------------3--|
Its something unpredictable, but in the end is right
Em D
e---------------------2-|
b---------------------3-|
g---------------------2-|
d-2---------------------|
a-2---------------------|
e-0---------------------|
I hope you had the time of your life
Interlude 3
G Csus2 D
e-3------------------------3----------------2--|
b-3------------------------3----------------3--|
g-0------------------------0----------------2--|
d-0------------------------2-------------------|
a-2------------------------3-------------------|
e-3--------------------------------------------|
G Csus2 D
e-3------------------------3----------------2--|
b-3------------------------3----------------3--|
g-0------------------------0----------------2--|
d-0------------------------2-------------------|
a-2------------------------3-------------------|
e-3--------------------------------------------|
Chorus
Em G Em G
e---------------------3---------------------------3--|
b---------------------3---------------------------3--|
g---------------------0---------------------------0--|
d-2-------------------0-----------2---------------0--|
a-2-------------------2-----------2---------------2--|
e-0-------------------3-----------0---------------3--|
Its something unpredictable, but in the end is right
Em D
e---------------------2-|
b---------------------3-|
g---------------------2-|
d-2---------------------|
a-2---------------------|
e-0---------------------|
I hope you had the time of your life
Outro
G Csus2 D
e-3------------------------3----------------2--|
b-3------------------------3----------------3--|
g-0------------------------0----------------2--|
d-0------------------------2-------------------|
a-2------------------------3-------------------|
e-3--------------------------------------------|
G Csus2 D G
e-3------------------------3----------------2--3-|
b-3------------------------3----------------3--3-|
g-0------------------------0----------------2--0-|
d-0------------------------2-------------------0-|
a-2------------------------3-------------------2-|
e-3--------------------------------------------3-|




Ваше мнение



Капча