Song: Good Riddance (Time of your life)
Artist: Green Day
Tabbed by: Daniel J.
(intro)
e--------------- x1
A---------------
D----0------0---
G---0-0----0-0--
B---------------
E--3------3-----
(verse)
(x2) (x1) (x1)
e-------------------------- x4
B----3--------3-------3----
G-----0-0------0-0---2-2-2-
D---0--0-----0--0---0---0--
A-----------3--------------
E--3-----------------------
e--------------------------------- x2
B---3-------3-------3-------3-----
G----0-0-----2-2-----2-2-----2-2--
D-----0----0--0-------0-------0---
A--2---------------3--------------
E--------------------------3------
e-------------------------------- x1
B---3-------3-------3-------3----
G----0-0-----2-2-----0-0-----2-2-
D-----0----0--0-------0----0--0--
A--3---------------3-------------
E--------------------------------

(corus)
Listen to song for timing.
(x6) (x4) (x4) (x2)
e-------------------------- x4
A--3----3----3----3--------
D--0----0----0----2--------
G--0----0----0----0--------
B--0----0----3----0--------
E--3----3------------------
(x5) (x5) (x5) (x2) (x1) (x1) (x1)
e----------------------------------- x2
A--3----3----3----3----3----3----3--
D--0----2----0----0----0----0----0--
G--0----0----0----0----0----0----0--
B--2----0----3----0----0----0----0--
E-----------------3----0----2----0--




Ваше мнение



Капча