!!! america !!!
tuning is regular. this is my first tab and i saw a bunch of wrong ones so i decided to give it a shot.

verse1
g g c d
-------------------------------------------------
-----3------------3------------3----------3------
-------0---0--------0---0-----0--0---2-2-2--0---0 4x
---0-----0------0-----0---2-2------2---0------0--
-2------------2-----------3----------------------
-3------------3----------------------------------

prechorus1
em d c g
------------------------------------------------
-----0-----------3-----------3----------3-------
---0---0---0-2-2---2---0-------0---0-------0---0
-2-------2---0-------0---2-2-----0-----0-----0-- 2x
-2-----------------------3-----------2----------
-------------------------------------3----------

chorus1
em g em g
---------------------------------------------------
------0-----------3-----------0------------3-------
----0---0---0-------0---0---0---0---0--------0---0-
-2--------2-----0-----0---2-------2------0-----0---
-2------------2-----------2------------2-----------
--------------3------------------------3-----------

em d
---------------------------
-----0-----------3---------
---0---0---0-2-2---2---0---
-2-------2---0-------0-----
-2-------------------------
---------------------------

verse2
g c d
-------------------------------------------------
-----3-----------3-----------3-----------3-------
-0-0---0-0-0-0-0---0-0-0-0-0---0-0-0-2-2---2-2-2-
-0-0---0-0-0-0-0---0-0-0-2-2---2-2-2-0-0---0-0-0- 4x
-2-2---2-2-2-2-2---2-2-2-3-3---3-3-3-0-0---0-0-0-
-3-3---3-3-3-3-3---3-3-3-------------------------

prechorus2
em d c g
-------------------------------------------------
-----0-----------3----------3-----------3--------
-0-0---0-0-0-2-2--2-2-2-0-0---0-0-0-0-0---0-0-0-- 2x
-2-2---2-2-2-0-0--0-0-0-2-2---2-2-2-0-0---0-0-0--
-2-2---2-2-2-0-0--0-0-0-3-3---3-3-3-2-2---2-2-2--
------------------------------------3-3---3-3-3--

chorus2
em g
------------------
-----0-----------3
-0-0---0-0-0-0-0-- 2x
-2-2---2-0-0-0-0--
-2-2---2-2-2-2-2--
-------------3-3--

e d
---------------------
-----0-----------3---
-0-0---0-0-0-2-2-----
-2-2---2-2-2-0-0-----
-2-2---2-2-2-0-0-----
---------------------

for the bridge srum the chords in this order:
g g c d g g c d g g c d g g c d

e d c g e d c g e g e g e d
(singing the chorus)

then go back to verse 1 and play it one time then play a g to end it




Ваше мнение



Капча