Artist:Green Day
Song:Good Ridance (time of your life)
Tabbed By: Colina uv Lithium Tabz
Email: [email protected] or [email protected]
Riff 1
G G Cadd9 D
E:--1---1---1-------2--------------------------------------------------|
B:--1---1---1-------3--------------------------------------------------|
G:------------------2--------------------------------------------------|
D:----------2----------------------------------------------------------|
A:--2---2---3----------------------------------------------------------|
E:--3---3--------------------------------------------------------------|
Riff 2
Em D Cadd9 G
E:-------2---1---------1-----------------------------------------------|
B:-------3---1---------1-----------------------------------------------|
G:-------2-------------------------------------------------------------|
D:--2--------2---------------------------------------------------------|
A:--2--------3---------2-----------------------------------------------|
E:---------------------3-----------------------------------------------|
Riff 3
Em G Em G Em D
E:-------1--------1--------2-------------------------------------------|
B:-------1--------1--------3-------------------------------------------|
G:-------------------------2-------------------------------------------|
D:---2--------2-------2------------------------------------------------|
A:---2---2----2---2---2------------------------------------------------|
E:-------3--------3----------------------------------------------------|

Riff 1 x4
Riff 2 x2
Riff 3 x1
Riff 1 x2
Riff 2 x2
Riff 3 x1
Riff 1 x4
Riff 2 x2
Riff 3 x1
Riff 1 x2
Riff 3 x1
Riff 1 x1
End on a G chord




Ваше мнение



Капча