t. See http://www.olga.net/faq/ for more information. #

Date: Fri, 14 Jan 2000 17:35:51 -0500
From: Nicholas Hoefel
Subject: g/green_day/good_riddance.crd

GREEN DAY-NIMROD
GOOD RIDDANCE
by- nick ([email protected])
FIRST INTRO PART (X2)
E--------------E
B--------------B
G--------0-----G
D-----------0--D
A--------------A
E--3--3--------E

INTRO PART 2 (PLAY ONCE, OR ANOTHER TIME AS 1ST VERSE)
*FINGERING HERE IS REAL EASY, JUST MOVE INDEX(1) NOT RING(3)
E-------------------------------------------E
B------3-------------3-------------3--------B
G--------0---0---------0---0---0-0---0---0--G
D--0-0-----0-----0-0-----0-----X-X-----0----D
A--X-X-----------X-X-----------3-3----------A
E--3-3-----------3-3------------------------E

E---------------E
B------3--------B
G--2-2-2-2---0--G
D--0-------0----D
A---------------A
E---------------E

RIFF A
E----------------------------------E
B--333333--333333--333333--333333--B
G--000000--000000--000000--222222--G
D--000000--000000--XXXXXX--000000--D
A--XXXXXX--XXXXXX--333333----------A
E--333333--333333------------------E (PLAY TWICE)

RIFF B G5
E--000000--------------------------E
B--000000--333333--333333--333333--B
G--000000--222222--000000--000000--G
D--222222--000000--XXXXXX--000000--D
A--222222----------333333--XXXXXX--A
E--000000------------------333333--E (PLAY TWICE)

CHORUS G5 G5 G5
E--000000----------000000----------000000--333333----------E
B--000000--333333--000000--333333--000000--222222--333333--B
G--000000--000000--000000--000000--000000--333333--000000--G
D--222222--000000--222222--000000--222222--000000--000000--D
A--222222--XXXXXX--222222--XXXXXX--222222----------XXXXXX--A
E--000000--333333--000000--333333--000000----------333333--E

OK, NOW, HERE'S THE ORDER
*IMPORTANT-listen to song to get all strumming patterns

INTRO 1
INTRO 2
RIFF A
RIFF B
CHORUS
RIFF A
RIFF A
RIFF B
CHORUS
RIFF A
RIFF B
INTRO 2
INTRO 2
chord G5, let ring




Ваше мнение



Капча