Gsus2 Em Cadd9 D C
--3-----0--------0-------2------0---
--3-----0--------3-------3------3---
--0-----0--------0-------2------0---
--0-----2--------2-------0------2---
--2-----2--------3-------x------3---
--3-----0--------x-------x------x---
Gsus2
e--------------------------------------------------------------
A--------0--------------------0--------------------------------
D-----0-----0-------------0------0-----------------------------
G--------------------------------------------------------------
B--------------------------------------------------------------
E--3------------------3----------------------------------------
BJ makes a mistake while playing this, and is not very
pleased.
Then the song really starts.
Gsus2 Cadd9 D
e--------------------------------------------------------------------
A----------3----------------3----------------3---------------3-------
D-------0-----0----------0-----0----------0-----0---------2-----2----
G------------------------------------------------------0-----------0-
B------------------------------------3---------------3---------------
E----3-------------3-3------------3----------------------------------
play 4 times(2,3,4th time the same, but substitute the
first 3 on the E-string for a 0 on the D string)
first and second time without singing
3:another turning point a fork stuck in the
road
4:Time grabs you by the wrist directs you where to
go
Em D C D
e--------------------------------------------------------------------
A---------0-------------3-------------1-----------------3------------
D------0-----0-------2-----2-------2-----2-----------2-----2---------
G---2-----------2-0----------0--------------------0-----------0------
B------------------------------3----------------3--------------------
E--------------------------------------------------------------------
play 2 times
1:So make the best of this test and dont ask why
2:It´s not a question but a lesson learned in time
Em Gsus2 Em Gsus2
e---------------------------------------------------------------
A-------0------------------3---------------0-------------3------
D----0-----0------------0-----0---------0-----0-------0-----0---
G-2----------------2----------------2-------------2-------------
B---------------------------------------------------------------
E---------------------3-----------3-----------------3---------3-
It´s something unpredictable, but in the end its right,

Em D
e------------------------------------------------------------
A---------0-----------------3--------------------------------
D------0-----0-----------2-----2-----------------------------
G----2--------------2-0-----------0--------------------------
B------------------------------------------------------------
E------------------------------------------------------------
I hope you had the Time of your
Now play in same rythem, but now play the chords totaly.
Gsus2 Gsus2 Cadd9 D
Live
Gsus2 Gsus2 Cadd9 D

Gsus2 Gsus2 Cadd9 D
So take the fotographs and still frames in your mind
Gsus2 Gsus2 Cadd9 D
Hang it on a shelf of good health amd good time
Em D C D
Tattoos of memories and dead skin on trial
Em D C D
For wat it´s worth it was worth all the while
Em Gsus2 Em Gsus2
It´s something unpredictable, but in the end it´s right
Em D Gsus2
I hope you had the time of your live
Now a bridge starts, with the violin
Gsus2 Gsus2 Cadd9 D (4 times)
Em C D Gsus2(2 times)
Em Gsus2 Em Gsus2
It´s something unpredictable, but in the end it´s right
Em D Gsus2
I hope you had the time of your live
Gsus2 Gsus2 Cadd9 D (2 times)
Now The end:
Em Gsus2 Em Gsus2
e---------------------------------------------------------------
A-------0------------------3---------------0-------------3------
D----0-----0------------0-----0---------0-----0-------0-----0---
G-2----------------2----------------2-------------2-------------
B---------------------------------------------------------------
E---------------------3-----------3-----------------3---------3-
It´s something unpredictable, but in the end its right,

Em D
e----------------------------------------------------------------
A---------0-----------------3------------------------------------
D------0-----0-----------2-----2---------------------------------
G----2--------------2-0-----------0------------------------------
B----------------------------------------------------------------
E----------------------------------------------------------------
I hope you had the Time of your
Gsus2 Gsus2 Cadd9 D
e----------------------------------------------------------------
B-------3------------3-------------3------------3----------------
G----0-----0------0-----0-------0----0-------2-----2-------------
D-----------------------------------------0-----------0----------
A----------------------------3----------3------------------------
E-3----------3-3-----------3-------------------------------------
Live
Gsus2 Gsus2 Cadd9 D
Gsus2
e------------------------------------------------------------3--
B-------3------------3-------------3------------3-----------3---
G----0-----0------0-----0-------0----0-------2-----2-------0----
D-----------------------------------------0-----------0----0----
A----------------------------3----------3-----------------2-----
E-3----------3-3-----------3------------------------------3-----
Thats it
Last Gsus2 is a slowely downward stroke on the strings


Ваше мнение



Капча