Date: Sun, 25 Jan 1998 10:44:39 PST
From: "A. Wood"
To: [email protected]
Subject: TAB: 'Espionage' by 'Green Day'
This is an Instrumental
Artists Name: Green Day
Song Title: Espionage
Album: Hitchin' A Ride Import/Single
Track #: 3
My Name (and I'm the transcriber): Adam Wood ([email protected])
Intro:
--------
Em
1:--0--
2:--0--
3:--0--
4;--2--
5:--2--
6:--0-
Main Riff:
--------------
Part 1 -
1:---------------------------------------------|
2:---------------------------------------------|
3:---------------------------------------------|
4:---------------------------------------------|
5:-------------2-2----1-1-1-0-----0-0----------|
6:--0-0--3-3-------3-----------3------3-2------| 4x
Part 2-
1:---------------------------------------------|
2:---------------------------------------------|
3:---------------------------------------------|
4: -------------2-2----1-1-1-0-----0-0---------|
5: --0-0--3-3-------3----------3-------3-2-----|
6:---------------------------------------------| 2x
Riff 2:
---------
(Figure out the strumming pattern)
Main Guitar-
B C B C B C D#
1:-----------------------------
2:-----------------------------
3:--4---5---4---5---4---5---9--
4:--4---5---4---5---4---5---9--
5:--2---3---2---3---2---3---6--
6:-----------------------------
Background Guitar-
1:---------------------------------------------------
2:---------------------------------------------------
3:------4-----------5-----------4-----------5--------
4:----4---4-------5---5-------4---4-------5---5------
5:---2-----2--0--3-----3--0--2-----2--0--3-----3--0--
6:---------------------------------------------------
1:---------------------------------------------------------------
2:---------------------------------------------------------------
3:----4-------------4------------------------------------------
4:--4---4---------4---4--------5---5---5---5----9---9---9---9--
5:-2-----2--2-2--2-----2-----3---3---3---3----6---6---6---6----
6:---------------------------------------------------------------
Song Structure:
Intro
Main Riff - Part 1 5x
Main Riff - Part 2 2x
Main Riff - Part 1 2x
Riff 2
Main Riff - Part 1 5x
Main Riff - Part 2 2x
Main Riff - Part 1 2x
Riff 2
Main Riff - Part 1 5x
Main Riff - Part 2 2x
Main Riff - Part 1 2x
Riff 2
Intro
Main Riff - Part 1 5x
Main Riff - Part 2 2x
Main Riff - Part 1 2x
Riff 2




Ваше мнение



Капча