Green Day
Espionage
Regular tuning (e,A,D,G,B,E)
Intro
eADGBE
000220 (STRUM FROM HIGH TO LOW)
VERSE FIRST PART
e--------------------------]
A--------------------------]
D--------------------------]
G--------------------------]
B-------22---111-0---00----]
E-00-33----3-------3----32-]
VERSE SECOND PART
e--------------------------]
A--------------------------]
D--------------------------]
G-------22---111-0---00----]
B-OO-33----3-------3----32-]
E--------------------------]
CHORUS
e---------------------------------------------------------------------------------
A---------------------------------------------------------------------------------
D---------------------------------------------------------------------------------
G---------------------------------------------------------------------------------
B-2-2-2-2-0-2-3-3-3-3-5-3-2-2-2-2-0-2-3-3-3-3-5-3-2-2-2-2-2-2-2-2-2-2-2-2-3-3-3-3-
E---------------------------------------------------------------------------------
CHORUS (CONT.)
e------------------------]
A------------------------]
D------------------------]
G------------------------]
B-3-3-3-3-6-6-6-6-6-6-6-6]
E------------------------]
IF YOU HAVE ANY CORRECTIONS OR COMMENTS E-MAIL ME AT [email protected]




Ваше мнение



Капча