Green Day - Emenius Sleepus
Submitted By: Chris
EMail: [email protected]
Album:Dookie (1994 Reprise Records)
Track:12
Guitar:Billie Joe Armstrong

Intro/Verse/Bridge/Outro:
A#5 D#
e---------------|
b---------------|
g---3-3-3-------|
D---3-3-3-1-1---|(x3)
A---1-1-1-1-1---|
E---------------|

G#5 F5
e---------------|
b---------------|
g---------------|
D---6-6-6-3-3---|
A---6-6-6-3-3---|
E---4-4-4-1-1---|

Intro x1

Verse x2

Chorus:
D# F5
e-----------------------------|
b-----------------------------|
g-----------------------------|
D---1-1-1-1-1-1-3-3-3-3-3-3---|(x3)
A---1-1-1-1-1-1-3-3-3-3-3-3---|
E---------------1-1-1-1-1-1---|

Bridge x1

Verse x2

Chorus x3

Bridge x2

Interlude:
A#5
e----------|
b----------|
g----------|
D---3~~~---|
A---3~~~---|
E---1~~~---|

Fill:
B A
e---7-5--------|
b---7-5-5------|
g---8-6--6-6---|
D---9-7---7----|
A---9-7--------|
E---7-5--------|

Interlude x1

Fill x1

Interlude x1

Fill x1

Interlude x1

A#5
e---------------------|
b---------------------|
g---3-3-3-3-3-3-3-3---|
D---3-3-3-3-3-3-3-3---|
A---1-1-1-1-1-1-1-1---|
E---------------------|

Chorus x3

Bridge x2

End On:
A#5
e-------|
b-------|
g---3---|
D---3---|
A---1---|
E-------|

That's it! That's 100% correct I think.
===========Green Day - Emenius Sleepus
Snails ([email protected])

As soon as you get the hang of this song, play it faster and faster...and
it'll sound pretty close. It also really helps a ton if you listen to the song.

Intro.
E--------------------------------------------------------------
B--------------------------------------------------------------
G---------9-9-9-------9-9-9-------9-9-9-----------------
D---9-9-9-9-9-9-9-9-9-9-9-9-9-9-9-9-9-9-7-7/---4------------
A---9-9-9-7-7-7-9-9-9-7-7-7-9-9-9-7-7-7-7-7/---4------------
E---7-7-7-------7-7-7-------7-7-7-------5-5/---2------------

Verse

E----------------------------------------------------------
B---------------------------------------------------------
G--------9-9-9--------------------9-9-9---------------
D--9-9-9-9-9-9-9-9-9/-4-4-4-9-9-9-9-9-9-7-7/-4--------
A--9-9-9-7-7-7-9-9-9/-4-4-4-9-9-9-7-7-7-7-7/-4--------
E--7-7-7-------7-7-7/-2-2-2-7-7-7-------5-5/-2---------

x2Chorus

E-----------------------------------------------------------------------------
B-----------------------------------------------------------------------------
G-9-9-9-9-x----------x-9-9-9-9-x----------x-9-9-9-9-x-------------
D-9-9-9-9-x-4--4-4-4-x-9-9-9-9-x-4--4-4-4-x-9-9-9-9-x-4-4-4-4----
A-7-7-7-7-x-4--4-4-4-x-7-7-7-7-x-4--4-4-4-x-7-7-7-7-x-4-4-4-4----
E---------x-2--2-2-2-x---------x-2--2-2-2-x---------x-2-2-2-2----

-after chorus, go back to the verse and play it once without singing, then do
the second verse-interlude

E---------------0----------------------------------------
B---------------0----------------------------------------
G-------------------------------------------------------
D--9/--------7-7------------7-77777-------------------------------
A--9/--------7--------------7-77777------------------------------
E--7/--------5--------------5-55555-----------------------------




Ваше мнение



Капча