Song: Eminius Sleepus
Band: Green Day
Album: Dookie
Tabber: Barry French (Bazdurst)

Tuning: Eb,Ab,Db,Gb,Bb,Eb

Verse

E-------------------------------------------------------------|
B-------------------------------------------------------------|
G-4-4-4-4-------------4-4-4-4-------------4-4-4-4-------------|
D-4-4-4-4-2-2-2-2-2-2-4-4-4-4-2-2-2-2-2-2-4-4-4-4-2-2-2-2-2-2-|
A-2-2-2-2-2-2-2-2-2-2-2-2-2-2-2-2-2-2-2-2-2-2-2-2-2-2-2-2-2-2-|
E---------0-0-0-0-0-0---------0-0-0-0-0-0---------0-0-0-0-0-0-|

E---------------------|
B---------------------|
G---------------------|
D-7-7-7-7-4-4-4-4-4-4-|
A-7-7-7-7-4-4-4-4-4-4-|
E-5-5-5-5-2-2-2-2-2-2-|

Chorus

E-------------------------------------------------------------|
B-------------------------------------------------------------|
G-------------------------------------------------------------|
D-2-2-2-2-4-4-4-4-4-4-2-2-2-2-4-4-4-4-4-4-2-2-2-2-4-4-4-4-4-4-|
A-2-2-2-2-4-4-4-4-4-4-2-2-2-2-4-4-4-4-4-4-2-2-2-2-4-4-4-4-4-4-|
E-0-0-0-0-2-2-2-2-2-2-0-0-0-0-2-2-2-2-2-2-0-0-0-0-2-2-2-2-2-2-|

Lyrics

I saw my friend the other day and
I don't know exactly just what he became
It goes to show it wasn't that long ago
I was just like you and now I think I'm sick and I wanna go home
How have i been? how have you been it's been so long
what have you done with all your time and what went wrong
I knew you back when and you... you knew me
and now I think you're sick I wanna go home
Anybody ever say no? Ever tell you that you weren't right?
Where did all the little kid go?
Did you lose it in a hateful fight?
And you know it's true




Ваше мнение



Капча