t. See http://www.olga.net/faq/ for more information. #
From: [email protected]
Date: Sun, 2 May 1999 12:14:41 EDT
Subject: g/green_day/emenius_sleepus.crd
title: Emenius Sleepus
by: Billy Armstrong/Green Day
As soon as you get the hang of this song, play it faster and faster...and
it'll sound pretty close. It also really helps a ton if you listen to the
song.

Intro.
E--------------------------------------------------------------
B--------------------------------------------------------------
G----------9-9-9---------9-9-9--------9-9-9-----------------
D---9-9-9-9-9-9-9-9-9-9-9-9-9-9-9-9-9-9-7-7/---4------------
A---9-9-9-7-7-7-9-9-9-7-7-7-9-9-9-7-7-7-7-7/---4------------
E---7-7-7---------7-7-7--------7-7-7---------5-5/---2------------
Verse
E----------------------------------------------------------
B---------------------------------------------------------
G---------9-9-9-------------------------9-9-9---------------
D--9-9-9-9-9-9-9-9-9/-4-4-4\-9-9-9-9-9-9-7-7/-4--------
A--9-9-9-7-7-7-9-9-9/-4-4-4\-9-9-9-7-7-7-7-7/-4--------
E--7-7-7---------7-7-7/-2-2-2\-7-7-7--------5-5/-2---------x2
Chorus
E-----------------------------------------------------------------------------
B-----------------------------------------------------------------------------
G-9-9-9-9-x------------x-9-9-9-9-x------------x-9-9-9-9-x-------------
D-9-9-9-9-x-4--4-4-4-x-9-9-9-9-x-4--4-4-4-x-9-9-9-9-x-4-4-4-4----
A-7-7-7-7-x-4--4-4-4-x-7-7-7-7-x-4--4-4-4-x-7-7-7-7-x-4-4-4-4----
E-----------x-2--2-2-2-x-----------x-2--2-2-2-x-----------x-2-2-2-2----
-after chorus, go back to the verse and play it once without singing, then do
the second verse-
intralude
E---------------0----------------------------------------
B---------------0----------------------------------------
G-------------------------------------------------------
D--9/--------7-7-----------7-77777-------------------------------
A--9/--------7--------------7-77777------------------------------
E--7/--------5--------------5-55555------------------------------
/ do this 3 times \ then then go back to chorus.
play intro
Verse
Chorus
Verse
Chorus
Intralude
Chorus




Ваше мнение



Капча